Song name
# A B C D E F G H I J K L M N O P Q R S T U V W X Y Z

Armored Saint - Crisis Of Life tab

			    ARMORED SAINT - CRISIS OF LIFE
-------------------------------------------------------------------------------
Tabbed by:spiderbaby
Email:

Tuning:E
Intro
e|---------------------------------------------------------------|
B|---------------------------------------------------------------|
G|---------------------------------------------------------------|
D|-9--9/---4--6-6---4---6-6-----------------------2--------2-----|
A|-7--7/---2--4-4---2---4-4----4-4-----4-4-----234--43-234---43--|
E|-----------------------------2-2-000-2-2-000-------------------|

e|-------------------------------------|
B|-------------------------------------|
G|-------------------------------------|
D|---------------------2---------------|
A|-4-4-----4-4-----234---43--2--3------|
E|-2-2-000-2-2-000-----------0--1--2x--|
Verse
e|---------------------------------------------------------------------|
B|---------------------------------------------------------------------|
G|---------------------------------------------------------------------|
D|-------------------------------------------------------------2-------|
A|-4-4-----4-4-----4-4---------2---4-4-----4-4-----4-4-----232-0---2x--|
E|-2-2-000-2-2-000-2-2-000-232-0---2-2-000-2-2-000-2-2-000-------------|
Bridge
e|--------------------------------------------------------------------|
B|--------------------------------------------------------------------|
G|--------------------------------------------------------------------|
D|-4-4-----4-4------2-2-----2-2------7-7-----7-7-----7/-9-9--7---9-9--|
A|-2-2-222-2-2-222--0-0-000-0-0-000--5-5-555-5-5-555-5/-7-7--5---7-7--|
E|--------------------------------------------------------------------|
Chorus
e|----------------------------------------------------------------------|
B|----------------------------------------------------------------------|
G|----------------------------------------------------------------------|
D|------------------------------------------------------777--9----------|
A|---------2-2-3~------------3-3-2-0-----------2-2-3~---555--7------2x--|
E|-2-2-5-2----------2-2-5-2-----------2-2-5-2-------------------0-------|
Tap to rate this tab
 
# A B C D E F G H I J K L M N O P Q R S T U V W X Y Z