Guitaretab - guitar tabs
Song name
# A B C D E F G H I J K L M N O P Q R S T U V W X Y Z

Army Navy - Silvery Sleds tab

Title: Silvery Sleds (acoustic)
Artist: Army Navy
Tabbed by: Mortifus

Enjoy! Email me at paulmortifus@gmail.com if you have comments or corrections. 
Nick and Norah rocks.

Intro:

E-----------0--------------------0------------|
B------1-------1---1--------3------3---3------|
G---------2-------------------4------4--------|
D---3------------3------/5--------------------|
A---------------------------------------------|
E---------------------------------------------|
  
E---------0--------------0-----------3--------|
B--------------------------1-----------3------|
G-----4------4----4----------2-----------0----|
D---6---6-------6------2----------------------|
A----------------------0----------------------|
E------------------------------------3--------|
  
E-----0-----------0---------------|
B-----1-----------3---------------|
G-----2---(x8)----4----(x8)-------|
D-----3-----------5---------------|
A-----x-----------x---------------|
E-----x-----------x---------------|	

Chords:

C  Ė x32010
C/Am Ė x32210
G Ė 320033
Am Ė x02210
F Ė 133211
G#m - 466444


Verse 1:

 C		C/Am	    G
We were the gray sound boys
 Am		F	    G
We break. We just may dance.
 C		C/Am	    G   Am F G
Whether the coldest horse 

 C			 C/Am	    
On the warmth of the warheads, 
 G	   Am      F	     G	
we float away on silvery sleds 
 C		C/Am	    G    Am F G
perfecting my useless charms

 F         Am          F		G
We bend. We break. We just canít stand it.
 F	    Am              F	G
We got no money so weíre running away.
 F         Am        F	  G
This time is wrong. Letís demand it.
 Am          G
Is there a cure?


Verse 2:

 C				C/Am	     G(ring)          
Between the cracks in the asphalt the lines are drawn and quickly divide
 C   		   C/Am	    G     Am F G
Meant from the boldest darks.
 C		   C/Am	    	 G      Am       F              G
As the summers migrate the frost recedes away for the fight
 C		   C/Am	     G   Am F G
To hide in the thickest fog
[ Tab from: http://www.guitaretab.com/a/army-navy/191177.html ]
F         Am          F		G
We bend. We break. We just canít stand it.
 F	    Am              F	G
We got no money so weíre running away.
 F         Am        F	  G
This time is wrong. Letís demand it.
 Am          G
Is there a cure?


Chorus:

  		   F			G
Ďcause everybody knows thereís no solution.
	      G#m		    Am	
Not everybody gets what they would like.
	      F		         G
I donít wanna be in this place forever.
	      G#m           Am             
I donít wanna be here for tonight.
             F		    G
I did my strutting in some other life.


Solo:

E-------------------------------------------------------------------|
B------------------------3h5--5--5ó5p3--3--3ó3p1--1--1ó1h3--3--3----|
G-----------------2--5----------------------------------------------|
D----------2--5-----------------------------------------------------|
A---3~--5-----------------------------------------------------------|
E-------------------------------------------------------------------|

E-------------------------------------------------------------------------|
B------------------------3h5--5--5ó5p3--3--3ó3p1--1--1ó1h3--3--3----------|
G-----------------2--5--------------------------------------------4h5p4~--|
D----------2--5-----------------------------------------------------------|
A---3~--5-----------------------------------------------------------------|
E-------------------------------------------------------------------------|


     		   F		      G
Ďcause everybody knows thereís no solution.
	      G#m	            Am	
Not everybody gets what they would like.
		 F			G
I donít wanna be in this place forever.
	          G#m        Am             
I donít wanna be here for tonight.
             F                          G
If I try to run, do you think I might find it?
   G#m                  Am
I donít think there is time.
              F                G
If you wanna go thatís your decision.
      G#m                     Am    C (let ring in the end chorus)
Iíve never been the one that said goodbye.

(Repeat 2x)

			
Related for Silvery Sleds tab