Song name
# A B C D E F G H I J K L M N O P Q R S T U V W X Y Z

Army Navy - Silvery Sleds chords

Highlighted       Show chord diagrams
Title: Silvery Sleds acoustic 
Artist: Army Navy

Not 100% correct but it sounds better for me this way. You guys can try it.
It fun playing this song. XD.

Intro:

E-----------0--------------------0------------|
B------1-------1---1--------3------3---3------|
G---------2-------------------4------4--------|
D---3------------3------/5--------------------|
A---------------------------------------------|
E---------------------------------------------|
  
E---------0--------------0-----------3--------|
B-----0-----0---0----------1-----------3------|
G-------0-----0--------------2-----------0----|
D---2------------------2----------------------|
A----------------------0----------------------|
E------------------------------------3--------|
  
E-----0-----------0---------------|
B-----1-----------3---------------|
G-----2---(x8)----4----(x8)-------|
D-----3-----------5---------------|
A-----x-----------x---------------|
E-----x-----------x---------------|	

Verse 1:

 C		Fm7         Em
We were the gray sound boys
 Am		Fm7	    G
We break. We just may dance.
 C		Fm7	    Em  Am Fm7 G
Whether the coldest horse 

 C		            Fm7
On the warmth of the warheads, 
 Em       Am       Fm7     G
we float away on silvery sleds 
 C		Fm7	    Em  Am Fm7 G
perfecting my useless charms

D#m         Am        Fm7             G
We bend. We break. We just canít stand it.
D#m         Am        Fm7             G
We got no money so weíre running away.
D#m         Am        Fm7             G
This time is wrong. Letís demand it.
 Am          G
Is there a cure?

Verse 2:

 C		           Fm7         Em
Between the cracks in the asphalt the lines are drawn and quickly divide
 C		Fm7         Em         Am
Meant from the boldest darks.
 C		   Fm7	    	 Em      Am       Fm7              G
As the summers migrate the frost recedes away for the fight
 C		   Fm7	     G   Am F G
To hide in the thickest fog

D#m         Am        Fm7             G
We bend. We break. We just canít stand it.
D#m         Am        Fm7             G
We got no money so weíre running away.
D#m         Am        Fm7             G
This time is wrong. Letís demand it.
 Am          G
Is there a cure?

Chorus:
  		   F			G
Cause everybody knows thereís no solution.
	      Em		    Am	
Not everybody gets what they would like.
	      F		         G
I donít wanna be in this place forever.
	      Em           Am             
I donít wanna be here for tonight.
             F		    G
I did my strutting in some other life.

Solo: 

E-------------------------------------------------------------------|
B-------------------------------------------------------------------|
G-----------------2--5--7h9-9-9--9h7-7-7--7h5-5-5--5h7-7-7----------|
D----------2--5-----------------------------------------------------|
A---3--5------------------------------------------------------------|
E-------------------------------------------------------------------|

E-------------------------------------------------------------------------|
B-------------------------------------------------------------------------|
G-----------------2--5--7h9-9-9--9h7-7-7--7h5-5-5--5h7-7-7--4h5p4~--------|
D----------2--5-----------------------------------------------------------|
A---3--5------------------------------------------------------------------|
E-------------------------------------------------------------------------|

D-------------------------------------------------------------------------|
A--3-----5-----6-----7-----5--------------Palm Muted----------------------|
E--1-x8--3-x8--4-x8--5-x4--3-x4-------------------------------------------|

cause everybody knows thereís no solution.
	      	            
Not everybody gets what they would like.
		 
I donít wanna be in this place forever.
	                     
I donít wanna be here for tonight.
             F                          G
If I try to run, do you think I might find it?
   Em                Am
I donít think there is time.
              F                G
If you wanna go thatís your decision.
      Em                     Am    C 
Iíve never been the one that said goodbye.


Enjoy!
Tap to rate this tab
 
# A B C D E F G H I J K L M N O P Q R S T U V W X Y Z