Song name
# A B C D E F G H I J K L M N O P Q R S T U V W X Y Z

Army Of Anyone - Aint Enough tab

Author/Artist: Army Of Anyone
Title: Ain't Enough (Live)
Transcribed by: Saverain
/ slide up
\ slide down
v vibrato
h hammer on
p pull off
b bend
r release bend

http://www.geocities.com/tabevolution

Tuning:  Open  D  (D A D F# A D)
-----|-------------------------------------|----------------------------------|
-----|-------------------------------------|----------------------------------|
-----|--------------------13--12-13-12-13--|----------------------------------|
-----|--------------------12--12-12-12-12--|----------------------------------|
-----|-------------------------------------|----------------------------------|
-----|-5-10-9-10--10/12--------------------|----------------------------------|
   Verse Pt.1

-----|------------------------------------|-----------------------------------|
-----|------------------------------------|-----------------------------------|
-----|-------------------15--14-15-14-15--|-----------------------------------|
-----|-------------------15--15-15-15-15--|-----------------------------------|
-----|------------------------------------|-----------------------------------|
-----|-5-10-9-10--10/15-------------------|-----------------------------------|
   Verse Pt.2

-|-----------|----------------------------|--|----------------------------|---|
-|-----------|----------------------------|--|----------------------------|---|
-|-----------|----------------------------|--|----------------------------|---|
-|-----------|----------------------------|--|----------------------------|---|
-|-----------|-5--0-5-0-5-0-3--3----------|--|-1--0-1-0-1-0---------------|---|
-|-5-10-9-10-|--------------------3h5-2h3-|--|--------------5--5--3h5-2h3-|---|
    Chorus

-----|--------------------------------------------------|------|--------------
Tap to rate this tab
 
# A B C D E F G H I J K L M N O P Q R S T U V W X Y Z