Song name
# A B C D E F G H I J K L M N O P Q R S T U V W X Y Z

Army Of Anyone - Nonstop tab

#----------------------------------PLEASE NOTE--------------------------------#
#This file is the author's own work and represents their interpretation of the#
#song. You may only use this file for private study, scholarship, or research.#
#-----------------------------------------------------------------------------#
#-- File created with Instab - http://www.pconline.com/~smcarey/instab.html --#
#-----------------------------------------------------------------------------#

Author/Artist: Army Of Anyone
Title: Nonstop
Transcribed by: Saverain
/ slide up
\ slide down
b bend
r release bend
h hammer on
p pull off
p.m. palm mute
d strum down
u strum up

Tuning: DADFAD

-----|-----------------------------|------------------------------------------|
-----|-----------------------------|------------------------------------------|
-----|-----------------------------|------------------------------------------|
-----|-----------------------------|------------------------------------------|
-----|-----5------5-8--5--3--------|------------------------------------------|
-----|-0-0-0--0-0-0-0--0--0--0-0-0-|------------------------------------------|
  Bass Arranged for Guitar

-----|---------------------------0----------------------------0-|-------------|
-----|--------------------------0----------------------------0--|-------------|
-----|-----------------------3/4--------------------------3-4---|-------------|
-----|-0-0-0-------0--0--0----------0-0-0-------0--0--0---------|-------------|
-----|-3-3-2--0-2--3--2--2/3--------3-3-2--0-2--3--2--2/3-------|-------------|
-----|-----0----------------------------0-----------------------|-------------|
  Verse                      d      d u d  d d  d  d  d   d d

-----|---------------------------0--------------------|-----------------------|
-----|--------------------------0---------------------|-----------------------|
-----|-----------------------3/4----------------------|-----------------------|
-----|-0-0-0-------0--0--0----------0-0-0-------0--0--|-----------------------|
-----|-3-3-2--0-2--3--2--2/3--------3-3-2--0-2--3--2--|-----------------------|
-----|-----0----------------------------0-------------|-----------------------|
   Verse Out

-----|-----------0--0-0-0-0-0-0-----------0--0-0-0-0-0-0-|--------------------|
-----|-----------0--0-0-0-0-0-0-----------0--0-0-0-0-0-0-|--------------------|
-----|-----------4--4-4-4-4-4-4-----------4--4-4-4-4-4-4-|--------------------|
-----|-0-5-5-----0--0-0-0-0-0-0-0-5-5-----0--0-0-0-0-0-0-|--------------------|
-----|-0-3-3--------------------0-3-3--------------------|--------------------|
-----|--------0------------------------0-----------------|--------------------|
   Pre Chorus Pt 1

-----|-----------0--0-0-0-0-0-0-----------0--0-0-0-0-0-0-|--------------------|
-----|-----------0--0-0-0-0-0-0-----------0--0-0-0-0-0-0-|--------------------|
-----|-----------4--4-4-4-4-4-4-----------4--4-4-4-4-4-4-|--------------------|
-----|-0-3-3--5--5--5-5-5-5-5-5-0-3-3-----0--0-0-0-0-0-0-|--------------------|
-----|-0-1-1--3-----------------0-1-1--------------------|--------------------|
-----|---------------------------------0-----------------|--------------------|
   Pre Chorus Pt 2

-----|------------------------------|--|--------------------------------------|
-----|------------------------------|--|--------------------------------------|
-----|------------------------------|--|--------------------------------------|
-----|------------------------------|--|--------------------------------------|
-----|-3b---------3-3b-----------3--|--|--------------------------------------|
-----|-----0--3-5-------0-0--3-5----|--|--------------------------------------|
  Chorus

------|--------------------------------------------------------------------|--|
------|---------------------------------------------------------4/5-vvvvv--|--|
------|---------------------------------------------------------3/4-vv-----|--|
------|-7/10\------0-----------------7/10\-----0----------------0----------|--|
------|--------3\---------------------------3\-----------------------------|--|
------|----------------------------------------------7/10\-3---------------|--|
  G2

------|------------------------------------------------------------------|----|
------|--------------------------------------------------------4/5-vvvvv-|----|
------|--------------------------------------------------------3/4-vv----|----|
------|--------------------------0-----------------------------0---------|----|
------|-12/15\-----------------------12/15\------------------------------|----|
------|--------10\-12---7/10\-3--0----------10\-12---7/10\-3-------------|----|
  G3

------|-----------2p0------------0--|--|--------------------------------------|
------|-----3p0-0-----0-3p0-0-3-----|--|--------------------------------------|
------|-----------------------------|--|--------------------------------------|
------|-----------------------------|--|--------------------------------------|
------|-0h3-------------------------|--|--------------------------------------|
------|-----------------------------|--|--------------------------------------|
  G1 Interlude

------|----------------------------------------------|------------------------|
------|----------------------------------------------|------------------------|
------|---7-6-7---6-7-9----11\-7--4-----7-6-7--------|------------------------|
------|---------------------------------0-0-0--------|------------------------|
------|---------------------------------0-0-0--------|------------------------|
------|----------------------------------------------|------------------------|
  G2 Interlude                          P.M..

------|-7---------7\-5-----7\-5\----------6/7--------|------------------------|
------|----------------5---------5-------------------|------------------------|
------|----------------------------------------------|------------------------|
------|----------------------------------------------|------------------------|
------|----------------------------------------------|------------------------|
------|----------------------------------------------|------------------------|
  G3 Interlude

------|------|-------------0------|-------------------------------------------|
------|------|-------------0------|-------------------------------------------|
------|------|-------------7\6----|-------------------------------------------|
------|------|----------0---------|-------------------------------------------|
------|------|----------5---------|-------------------------------------------|
------|------|-7/10\-3------------|-------------------------------------------|
  G1   Chorus  End
Tap to rate this tab
# A B C D E F G H I J K L M N O P Q R S T U V W X Y Z