Song name
# A B C D E F G H I J K L M N O P Q R S T U V W X Y Z

Army Of Freshmen - Some Happy Ending tab

-------------------------------------------------------------------------------
			     Some Happy Ending - Army of Freshmen
-------------------------------------------------------------------------------
Tabbed by:A7X'N'DIA*RULE
Email:Jordan251293@aol.com

Tuning:EADGBe

Intro part 1
e|---------------------------------------------------------------------------|
B|---------------------------------------------------------------------------|
G|--4-4-4-4-4-4-4-4----------------------------------------------------------|
D|--4-4-4-4-4-4-4-4--6-6-6-6-6-6-6-6--4-4-4-4-4-4-4-4--2-2-2-2-2-2-2-2--(x2)-|
A|--2-2-2-2-2-2-2-2--6-6-6-6-6-6-6-6--4-4-4-4-4-4-4-4--2-2-2-2-2-2-2-2-------|
E|-------------------4-4-4-4-4-4-4-4--2-2-2-2-2-2-2-2--0-0-0-0-0-0-0-0-------|
    |P.M.-------------------------------------------------------------|

Intro part 2
e|---------------------------------------------------------------------------|
B|---------------------------------------------------------------------------|
G|--4-4-4-4-4-4-4-4----------------------------------------------------------|
D|--4-4-4-4-4-4-4-4--4~--6-6-6-6-6-6-6-6--2~-------(x2)----------------------|
A|--2-2-2-2-2-2-2-2--4~--6-6-6-6-6-6-6-6--2~---------------------------------|
E|-------------------2~--4-4-4-4-4-4-4-4--0~---------------------------------|


Verse
e|---------------------------------------------------------------------------|
B|---------------------------------------------------------------------------|
G|--4-4-4-4-4---4-4-4-4-4----------------------------------------------------|
D|--4-4-4-4-4---4-4-4-4-4---2-2-2-2-2---2-2-2-2-2---(x2)last time let ring --|
A|--2-2-2-2-2---2-2-2-2-2---2-2-2-2-2---2-2-2-2-2------then pick scrape------|
E|--------------------------0-0-0-0-0---0-0-0-0-0----------------------------|

e|---------------------------------------------------------------------------|
B|---------------------------------------------------------------------------|
G|---------------------------------------------------------------------------|
D|--2-2-2-2-2---2-2-2-2-2----x2-I think--------------------------------------|
A|--2-2-2-2-2---2-2-2-2-2----------------------------------------------------|
E|--0-0-0-0-0---0-0-0-0-0----------------------------------------------------|

Chorus 
Same as Intro part 1 without palm muting

Pre-chorus
e|---------------------------------------------------------------------------|
B|---------------------------------------------------------------------------|
G|---------------------------------------------------------------------------|
D|--2-2-2-2--4-4-4-4--6-6-6-6--8-8-8-8---------------------------------------|
A|--2-2-2-2--4-4-4-4--6-6-6-6--8-8-8-8---------------------------------------|
E|--0-0-0-0--2-2-2-2--4-4-4-4--6-6-6-6---------------------------------------|
   |P.M.------------------------------| 


Bridge 
same as intro part 2

Outro 
same as intro part 2



Order
=====
Intro part 1 x2
Intro part 2 x2
Verse 1      x1
Chorus       x2
Verse 2      x1
Pre-chorus   x1
Chorus       x2
Bridge       x4
Chorus       x2
Outro        x2 

| ~  let ring
===============================================================================
Tap to rate this tab
# A B C D E F G H I J K L M N O P Q R S T U V W X Y Z