Song name
# A B C D E F G H I J K L M N O P Q R S T U V W X Y Z

Army Of Me - Going Through Changes tab

--------------------------------------------------------------------
	          Going Through Changes - Army of Me
--------------------------------------------------------------------
Tabbed by: maestro
Email: soccerstoolie_lindsayw@hotmail.com

Tuning: standard

intro (x6)
e|------------------------------------------------------------------|
B|----4----6--4-----4----6--4----3----6--3-----4----6--4------------|
G|--5----5--------3----3-------3----3--------5---5------------------|
D|------------------------------------------------------------------|
A|------------------------------------------------------------------|
E|------------------------------------------------------------------|

verse (played at same time as intro)
e|------------------------------------------------------------------|
B|------------------------------------------------------------------|
G|--5----8--------------------------5---------------5----8----------|
D|--5----8----8----10---(x2)---6----5----8----10----5----8----8-----|
A|--3----6----8----10----------6----3----8----10----3----6----8-----|
E|------------6----8-----------4---------6----8---------------6-----|

pre-chorus
e|------------------------------------------------------------------|
B|------------------------------------------------------------------|
G|--5--5---3h5-5----5-----/7-----/8-----/12-------------------------|
D|--5--5---3h5-5----x-(x4)-x-(x4)-x-(x4)-x--------------------------|
A|--3--3---3---3----3-----/5-----/6-----/10-------------------------|
E|------------------------------------------------------------------|

chorus
e|------------------------------------------------------------------|
B|------------------------------------------------------------------|
G|-------5----8-----------------------------------------------------|
D|--6----5----8----8------------------------------------------------|
A|--6----3----6----8------------------------------------------------|
E|--4--------------6------------------------------------------------|

post-chorus (x2)
e|------------------------------------------------------------------|
B|------------------------------------------------------------------|
G|--5----8----------------------------------------------------------|
D|--5----8----8----6------------------------------------------------|
A|--3----6----8----6------------------------------------------------|
E|------------6----4------------------------------------------------|

repeat intro (x4)
repeat pre-chorus
repeat chorus

bridge
e|------------------------------------------------------------------|
B|------------------------------------------------------------------|
G|------------------------------------------------------------------|
D|--3----8----3----8----3----5----8---------------------------------|
A|--3----8----3----8----3----5----8---------------------------------|
E|--1----6----1----6----1----3----6---------------------------------|

pause, no guitar after bridge

third verse:
e|------------------------------------------------------------------|
B|-------8~--------6~--------8~-------------------------------------|
G|--8~--------7~---------8~-------7~--------------------------------|
D|------------------------------------------------------------------|
A|------------------------------------------------------------------|
E|------------------------------------------------------------------|

prechorus, with this riff
e|------------------------------------------------------------------|
B|------------------------------------------------------------------|
G|---5h8--5h8--5h8--etc---------------------------------------------|
D|------------------------------------------------------------------|
A|------------------------------------------------------------------|
E|------------------------------------------------------------------|

chorus (x2)

ending - guitar 1
e|------------------------------------------------------------------|
B|------------------------------------------------------------------|
G|------------------------------------------------------------------|
D|---6--5--8---(x5)---on sixth time--6/8/10-------13--15------------|
A|----------------------play this:----------------------------------|
E|------------------------------------------------------------------|

ending guitar 2
e|------------------------------------------------------------------|
B|------------------------------------------------------------------|
G|------------------------------------------------------------------|
D|--6----10----13----8----6~----------------------------------------|
A|--6----10----13----8----6~----------------------------------------|
E|--4----8-----11----6----4~----------------------------------------|
Tap to rate this tab
 
# A B C D E F G H I J K L M N O P Q R S T U V W X Y Z