Song name
# A B C D E F G H I J K L M N O P Q R S T U V W X Y Z

Army Of The Pharaohs - The Torture Papers tab

E|------------------------------------------|
B|------------------------------------------|
G|------------------------------------------|
D|------------------------------------------|
A|------------------------------------------|
E|--13--11--6------------13--11--6----------|

E|------------------------------------------|
B|------------------------------------------|
G|------------------------------------------|
D|------------------------------------------|
A|------------------------------------------|
E|-12-------14--12--7--------14--12--7------|

E|--17----------17----------16--16--16--16--|
B|-----15-18-15----15-18-15-----------------|
G|------------------------------------------|
D|------------------------------------------|
A|------------------------------------------|
E|------------------------------------------|

E|-----------------------------------|
B|-----------------------------------|
G|-----------------------------------|
D|---8--7--8--5----------------------|
A|-------------------8----5-4---4----|
E|----------------------------7------|

E|-----------------------------------------------|
B|-----------------------------------------------|
G|-----------------------------------------------|  Offbeat
D|-7-7---7-7---7-7---7-7---7-7---7-7---7-7---7-7-|
A|-5-5---5-5---5-5---5-5---5-5---5-5---5-5---5-5-|
E|-----------------------------------------------|

E|-------------------------------------------------------------|   Repeat
B|---------15-------------15-------------15-------------15-----|     as
G|---------14-------------14-------------14-------------14-----| Necessary
D|-------------------------------------------------------------|
A|-------------------------------------------------------------|
E|--0--0-----------0--0-----------0--0-----------0--0----------|
  pm....         pm....         pm....         pm....


Excuse me if this is a bit off, it's my first tab
You'll have to guess the timing, as this is not correct xD

http://www.myspace.com/armyofthepharaohs they don't have an official page, as they are 
underground
Tap to rate this tab
 
# A B C D E F G H I J K L M N O P Q R S T U V W X Y Z