Song name
# A B C D E F G H I J K L M N O P Q R S T U V W X Y Z

Arnee Hidalgo - True tab

Hey rockers this is the best song from intheclear and i cannot believe they're unknown
they are awesome! i am sorry about the intro because i know what i made for the intro
but at least i'm giving you a head start, but i am the first to make so i got no help. 
please don't complain about it because if you will i already did your job. Thanks.

~=let ring    x X=graduatly get louder
h=hammer on
p=pull off

From:iTunes

Guitar 1: (C G C F A D)
Guitar 2: (C G C F A D)

Intro

Guitar 1  (00:00)-(00:28)
D----------------------------------------------------------------------|
A-7-7-7-7-7-7-7-7-7-7-7-7-7-7-7-7-7-5-5-5-5-5-5-5-5-5-5-5-5-5-5-5-5-5--| x4
F-7-7-7-7-7-7-7-7-7-7-7-7-7-7-7-7-7-3-3-3-3-3-3-3-3-3-3-3-3-3-3-3-3-3--|
C-5-5-5-5-5-5-5-5-5-5-5-5-5-5-5-5-5-3-3-3-3-3-3-3-3-3-3-3-3-3-3-3-3-3--|
G----------------------------------------------------------------------|
C----------------------------------------------------------------------|

Guitar 2 (after guitar 1 plays twices) (00:15)-(00:28)
D-11------------------------------------------------------------------|
A---------------------------------------------------------------------|
F----14~~14-14h15p14-14~~14~14/12-12h14p12-10~~~10-9-10h12p10-12~~~~~-|
C---------------------------------------------------------------------|
G---------------------------------------------------------------------|
C---------------------------------------------------------------------|

Chorus

Guitar 1 (00:28)-(00:33)
D-------------------------------------------------------|
A-------------------------------------------------------|
F-------------------------------------------------------|
C-----------------------8-8-8-8-8-8-8-8-7-7-7-7-7-7-7-7-|
G-0-0-0--0--0--0-0--0-0-8-8-8-8-8-8-8-8-7-7-7-7-7-7-7-7-|
C-0-0-0--0--0--0-0--0-0-8-8-8-8-8-8-8-8-7-7-7-7-7-7-7-7-|

Guitar 2 (00:28)-(00:33)
D-----------------------7-7-7-7-7-7-7-7-6-6-6-6-6-6-6-6-|
A-------------------------------------------------------|
F-------------------------------------------------------|
C-------------------------------------------------------|
G-------------------------------------------------------|
C-0-0-0--0--0--0-0--0-0---------------------------------|

Guitar 1 (00:33)-(00:40)
D---------------------------------------------------------------|
A---------------------------------------------------------------|
F---------------------------------------------------------------|
C-----------------------8-8-8-8-8-8-8-8-10-10-10-10-10-10-10-10-|
G-0-0-0--0--0--0-0--0-0-8-8-8-8-8-8-8-8-10-10-10-10-10-10-10-10-|
C-0-0-0--0--0--0-0--0-0-8-8-8-8-8-8-8-8-10-10-10-10-10-10-10-10-|

Guitar 2 (00:33)-(00:40)
D------------------------7-7-7-7-7-7-7-7-9-9-9-9-9-9-9-9-|
A--------------------------------------------------------|
F-7-7-7--7--7--7-9--9-10---------------------------------|
C--------------------------------------------------------|
G--------------------------------------------------------|
C--------------------------------------------------------|

Verse (sorry i don't have lyrics, all i could get was timing)

Guitar 1 (00:40)-(01:05)
D-7~~~~~6~~~~~
A-7~~~~~6~~~~~
F-7~~~~~6~~~~~ x4
C-------------|
G-------------|
C-------------|

Guitar 2 (00:47)-(00:58)
D-----------------------------------|
A-10~~~------------------10~~10-13--|
F------9h10p9-8h10p8-8h9------------| x2
C-----------------------------------|
G-----------------------------------|
C-----------------------------------|

Guitar 2 (00:58)-(01:05)
D-----------------------------------------------------------------|
A-10-10-10-10-10-10-10-10-10-10-10-10-------------------10~~10----|
F-------------------------------------9h10p9-8h10p8-8h9-------10--|
C-----------------------------------------------------------------|
G-----------------------------------------------------------------|
C-----------------------------------------------------------------|

Chorus (Guitar 1 and 2 x2)

Guitar 1 (01:05)-(01:30)
D-------------------------------------------------------|
A-------------------------------------------------------|
F-------------------------------------------------------|
C-----------------------8-8-8-8-8-8-8-8-7-7-7-7-7-7-7-7-|
G-0-0-0--0--0--0-0--0-0-8-8-8-8-8-8-8-8-7-7-7-7-7-7-7-7-|
C-0-0-0--0--0--0-0--0-0-8-8-8-8-8-8-8-8-7-7-7-7-7-7-7-7-|

Guitar 1 (not guitar 2 guitar 1 sorry if it's confusingbut it goes with timing)
D---------------------------------------------------------------|
A---------------------------------------------------------------|
F---------------------------------------------------------------|
C-----------------------8-8-8-8-8-8-8-8-10-10-10-10-10-10-10-10-|
G-0-0-0--0--0--0-0--0-0-8-8-8-8-8-8-8-8-10-10-10-10-10-10-10-10-|
C-0-0-0--0--0--0-0--0-0-8-8-8-8-8-8-8-8-10-10-10-10-10-10-10-10-|

Guitar 2 (01:05)-(01:30)
D------------------------7-7-7-7-7-7-7-7-6-6-6-6-6-6-6-6-|
A--------------------------------------------------------|
F-7-7-7--7--7--7-9--9-10---------------------------------|
C--------------------------------------------------------|
G--------------------------------------------------------|
C--------------------------------------------------------|

Guitar 2
D------------------------7-7-7-7-7-7-7-7-9-9-9-9-9-9-9-9-|
A--------------------------------------------------------|
F-7-7-7--7--7--7-9--9-10---------------------------------|
C--------------------------------------------------------|
G--------------------------------------------------------|
C--------------------------------------------------------|

Verse

Guitar 1 (01:30)-(01:54)
D-7~~~~~6~~~~~
A-7~~~~~6~~~~~
F-7~~~~~6~~~~~
C-------------|
G-------------|
C-------------|

Guitar 2 (01:38)-(01:48)
D-----------------------------|
A-------------------10~~10-13-|
F-9h10p9-8h10p8-8h9-----------|
C-----------------------------|
G-----------------------------|
C-----------------------------|

Guitar 2 (01:38)-(01:54)
D------------------------------------------------------------------|
A-10-10-10-10-10-10-10-10-10-10-10-10-------------------10~~-10----|
F-------------------------------------9h10p9-8h10p8-8h9---------10-|
C------------------------------------------------------------------|
G------------------------------------------------------------------|
C------------------------------------------------------------------|

Chorus (Guitar 1 and 2 x2)

Guitar 1 (01:54)-(02:19)
D-------------------------------------------------------|
A-------------------------------------------------------|
F-------------------------------------------------------|
C-----------------------8-8-8-8-8-8-8-8-7-7-7-7-7-7-7-7-|
G-0-0-0--0--0--0-0--0-0-8-8-8-8-8-8-8-8-7-7-7-7-7-7-7-7-|
C-0-0-0--0--0--0-0--0-0-8-8-8-8-8-8-8-8-7-7-7-7-7-7-7-7-|

Guitar 1
D---------------------------------------------------------------|
A---------------------------------------------------------------|
F---------------------------------------------------------------|
C-----------------------8-8-8-8-8-8-8-8-10-10-10-10-10-10-10-10-|
G-0-0-0--0--0--0-0--0-0-8-8-8-8-8-8-8-8-10-10-10-10-10-10-10-10-|
C-0-0-0--0--0--0-0--0-0-8-8-8-8-8-8-8-8-10-10-10-10-10-10-10-10-|

Guitar 2 (01:54)-(02:19)
D------------------------7-7-7-7-7-7-7-7-6-6-6-6-6-6-6-6-|
A--------------------------------------------------------|
F-7-7-7--7--7--7-9--9-10---------------------------------|
C--------------------------------------------------------|
G--------------------------------------------------------|
C--------------------------------------------------------|

Guitar 2
D------------------------7-7-7-7-7-7-7-7-9-9-9-9-9-9-9-9-|
A--------------------------------------------------------|
F-7-7-7--7--7--7-9--9-10---------------------------------|
C--------------------------------------------------------|
G--------------------------------------------------------|
C--------------------------------------------------------|

Bridge 1

Both Guitars (02:19)-(02:32)
D---------------------------------|
A---------------------------------|
F---------------------------------|
C-0~~~~~~~0~~~~~~~0~~~~~~~0~~~~~~~
G-0~~~~~~~0~~~~~~~0~~~~~~~0~~~~~~~
C-0~~~~~~~0~~~~~~~0~~~~~~~0~~~~~~~

Some what of guitar solo or still bridge 1... you decide

Guitar 1 (02:38)-(02:50)
D----------------------------------------|
A----------------------------------------|
F----------------------------------------|
C-0~~~~~~~0~~~~~~~0~~~~~~~0~~~~~~~x-x--x-|
G-0~~~~~~~0~~~~~~~0~~~~~~~0~~~~~~~x-x--x-|
C-0~~~~~~~0~~~~~~~0~~~~~~~0~~~~~~~x-x--x-|

Guitar 2 (02:32)-(02:49)
D--------------------------------|
A--------------------------------|
F--------------------------------|
C-0------------------------------| x6
G-0---------------8-8-8-7-7-7-8--|
C-0-7-7-7-7-7-7-7-7--------------|
    x                         X

Bridge 2

Both guitars (02:49)-(03:03)
D----------------------------------|
A----------------------------------|
F----------------------------------|
C-0-0-0-0-7-7-8-8---0-5-5-6-6-3-3--| x4
G-0-0-0-0-7-7-8-8---0-5-5-6-6-3-3--|
C-0-0-0-0-7-7-8-8---0-5-5-6-6-3-3--|

Both guitars (03:03)-(03:14)
D---------------------------|
A---------------------------|
F---------------------------|
C-12/6-7-8-7-8--0-0--6-5-3--| x4
G-12/6-7-8-7-8--0-0--6-5-3--|
C-12/6-7-8-7-8--0-0--6-5-3--|

Both guitars (03:14)-(03:15)
D--------|
A--------|
F--------|
C-x-x--x-
G-x-x--x-
C-x-x--x-

Chorus (Guitar 1 and 2 x2)

Guitar 1 (03:15)-(03:38)
D-------------------------------------------------------|
A-------------------------------------------------------|
F-------------------------------------------------------|
C-----------------------8-8-8-8-8-8-8-8-7-7-7-7-7-7-7-7-|
G-0-0-0--0--0--0-0--0-0-8-8-8-8-8-8-8-8-7-7-7-7-7-7-7-7-|
C-0-0-0--0--0--0-0--0-0-8-8-8-8-8-8-8-8-7-7-7-7-7-7-7-7-|

Guitar 1
D---------------------------------------------------------------|
A---------------------------------------------------------------|
F---------------------------------------------------------------|
C-----------------------8-8-8-8-8-8-8-8-10-10-10-10-10-10-10-10-|
G-0-0-0--0--0--0-0--0-0-8-8-8-8-8-8-8-8-10-10-10-10-10-10-10-10-|
C-0-0-0--0--0--0-0--0-0-8-8-8-8-8-8-8-8-10-10-10-10-10-10-10-10-|

Guitar 2 (03:15)-(03:38)
D------------------------7-7-7-7-7-7-7-7-6-6-6-6-6-6-6-6-|
A--------------------------------------------------------|
F-7-7-7--7--7--7-9--9-10---------------------------------|
C--------------------------------------------------------|
G--------------------------------------------------------|
C--------------------------------------------------------|

Guitar 2
D------------------------7-7-7-7-7-7-7-7-9-9-9-9-9-9-9-9-|
A--------------------------------------------------------|
F-7-7-7--7--7--7-9--9-10---------------------------------|
C--------------------------------------------------------|
G--------------------------------------------------------|
C--------------------------------------------------------|

Outro (as you can tell guitar 1 plays bridge 2)

Guitar 1 (03:40)-(03:57)
D---------------------------|
A---------------------------|
F---------------------------|
C-12/6-7-8-7-8--0-0--6-5-3--| x4
G-12/6-7-8-7-8--0-0--6-5-3--|
C-12/6-7-8-7-8--0-0--6-5-3--|

Guitar 2 (03:40)-(03:57)
D-----------------------------|
A-----------------------------|
F--------7-9-7-9------10-9-7--|
C-12/6-7---------0-0----------| x4
G-12/6-7---------0-0----------|
C-12/6-7---------0-0----------|

Well outro accually ends at (03:52) but you get it....
Thank you for reading this tab and hopefully it helps, and i really hope it influences
to make it better than mine (most likely it will) Rock Out!
Tap to rate this tab
# A B C D E F G H I J K L M N O P Q R S T U V W X Y Z