Song name
# A B C D E F G H I J K L M N O P Q R S T U V W X Y Z

Arno Elias - El Corazon tab

El Corazon - Arno Elias

The guitar harp of the song. If you find any mistake please for your corrections

C Magor guitar harp:

----------------------------------------------------------------------------|
--------3--5---------3--5--------3------------------------------------------|
--------------5------------5--------5---------------------------------------|
-----5-----------5------------5--------5------------------------------------|
--3-------------------------------------------------------------------------|
----------------------------------------------------------------------------|

A Minor guitar harp:

----------------------------------------------------------------------------|
--------0--1--------0--1--------0--1----------------------------------------|
--------------2-----------2-----------2-------------------------------------|
-----2-----------2-----------2----------------------------------------------|
--0-------------------------------------------------------------------------|
----------------------------------------------------------------------------|

E Minor guitar harp:

----------------------------------------------------------------------------|
--------7--8--------7--8--------7--8----------------------------------------|
--------------9-----------9-----------9-------------------------------------|
-----9-----------9-----------9----------------------------------------------|
--7-------------------------------------------------------------------------|
----------------------------------------------------------------------------|


After the guitar solo the E minor harp is changed:

----------------------------------------------------------------------------|
------------------------------------------------7--8--------7--8-------7--8-|
-----------0-----------0------------------------------9-----------9---------|
--------4-----4-----4-----4-----5-4-5-4------9-----------9-----------9------|
-----2-----------2-----------2------------7---------------------------------|
--0-------------------------------------------------------------------------|


http://www.arnoelias.com/
Tap to rate this tab
 
# A B C D E F G H I J K L M N O P Q R S T U V W X Y Z