Arnocorps - Arno tab

Arnocorps - Arno Intro

skyturnedred@gmail.com 

EADGBe

Riff 1

Guitar 1 plays this 4 times
|------------|------------|------------|-----------|
|------------|------------|------------|-----------|
|-------0----|-------0----|-------0----|-----------|
|----2----2--|----2----2--|----2----2--|---2----2--|
|------------|-3----------|-2----------|-1----0----|
|-0----------|------------|------------|-----------|


Guitar 2

 1st   2nd    3rd & 4th repeat of Guitar 1 riff
|-----|-----|-----|-------|
|-----|-----|-----|-------|
|-----|-----|-----|-------|
|-----|-2---|-----|-------|
|-----|-2---|-7---|-------|
|-----|-0---|-----|---15\-| <- pickslide


Riff 2 x2 

|-------------------------------|
|-------------------------------| Tried to make the timing
|--------5-55---5-55------------| fairly clear...
|-2-22-5-5-55-5-5-55-5-8-88-75--| Not sure about the 
|-2-22-5-3-33-5-3-33-5-8-88-75--| second C power chord.
|-0-00-3------3------3-6-66-53--|


Riff 3 x2 

|---------------------------------|
|---------------------------------|
|------------5-------2------3---2-|
|----2----5555-55-2222-22-333-222-|
|-2222-22-3333 33-0000-00-111-000-|
|-0000-00-------------------------|
  ...  .. ...  .. ...  .. ..  ..


Riff 2 x2 
Riff 3 x4 


Riff 2 x4 /w some cool bass solo thingie

End with
|-------|
|-------|
|-------|
|-2-----|
|-2-----|
|-0-----|

Can you feel the pump?!
Tap to rate this tab
 
# A B C D E F G H I J K L M N O P Q R S T U V W X Y Z