Song name
# A B C D E F G H I J K L M N O P Q R S T U V W X Y Z

Arrogant Sons Of Bitches - Piss Off tab

Piss Off
The Arrogant Sons Of Bitches
Tabbed By: Jeremy Rees

Intro/Verse, Half-way through playing this once the horns come in.
There is muted guitar in the background. Use Distortion
Pick pattern is tricky, due to fills he uses on the guitar.

e-11--8---6---6-|
b-13--9---6---8-|
g-13--10--7---8-|
d-13--10--8---8-|
a---------------|
e---------------|

e-4-
b-4-
g-5-  (alternative to first note)
d-6-
a-6-
e-4-

Chorus
Distortion

e----------------------        --------------------------|
b----------------------        --------------------------|
g----------------------        8-8--101010--12-12-121212-|
d-11-11--101010--6-6-666- x3   8-8--101010--12-12-121212-|
a-11-11--101010--6-6-666-      6-6--8-8-8---10-10-101010-|
e-9--9---8-8-8---4-4-444-      --------------------------|

Hold the first note of the next verse. {in power chord form }
This verse is only palm muted guitar.  {in power chord form }

Play the Chorus again and then the which is,

e----------------------        ---------------------|
b----------------------        ---------------------|
g--1010--8-8---6-6-666-        -----------8-8-8888--|
d--1010--8-8---6-6-666-   x3   6-6-6666---8-8-8888--|
a--8-8---6-6---4-4-444-        6-6-6666---6-6-6666--|
e----------------------        4-4-4444-------------|


The Ending is played in power chords, for the most part,
and it just follows the verse progression

e-----------------|
b-----------------|
g---------3---8---|
d-6---3---3---8---|
a-6---3---1---6---|
e-4---1-----------|

Thanks!
Tap to rate this tab
 
# A B C D E F G H I J K L M N O P Q R S T U V W X Y Z