Song name
# A B C D E F G H I J K L M N O P Q R S T U V W X Y Z

Arrogant Sons Of Bitches - Melon Country tab

-------------------------------------------------------------------------------
			     Melon Country - Arrogant Sons of Bitches
-------------------------------------------------------------------------------
Tabbed by:aleckillscobra
Email:adkband@yahoo.com

Tuning:standard

Intro

Guitar 1
e|---------------------------------------------------------------------------|
B|---------------------------------------------------------------------------|
G|-9~----------------------------9~------------------------------------------|
D|-9~----------------------------9~------------------------------------------|
A|-7~----------------------------7~------------------------------------------|
E|-0~----------------------------0~------------------------------------------|
Guitar 2
e|---------------------------------------------------------------------------|
B|---------------------------------------------------------------------------|
G|-------------------------------13~-----------------------------------------|
D|-------------------------------x-------------------------------------------|
A|-------------------------------11~-----------------------------------------|
E|---------------------------------------------------------------------------|

Guitar 1 (x2)
e|---------------------------------------------------------------------------|
B|---------------------------------------------------------------------------|
G|---------------------------------------------------------------------------|
D|-9-9-9-9-9-9-9-9-----------------------------------------------------------|
A|-7-7-7-7-7-7-7-7-9-9-9-9-7-7-7-7-6-6-6-6-6-6-6-6-7-7-7-7-9-9-9-9-----------|
E|-----------------7-7-7-7-5-5-5-5-4-4-4-4-4-4-4-4-5-5-5-5-7-7-7-7-----------|
Guitar 2 (x2)
e|---------------------------------------------------------------------------|
B|---------------------------------------------------------------------------|
G|---------------------------------------------------------------------------|
D|---------------------------------------------------------------------------|
A|---------------------------------------------------------------------------|
E|---------------------------------------------------------------------------|


Guitar 1 (x2)
e|---------------------------------------------------------------------------|
B|---------------------------------------------------------------------------|
G|---------------------------------------------------------------------------|
D|-9-9-9-9-9-9-9-9-----------------------------------------------------------|
A|-7-7-7-7-7-7-7-7-9-9-9-9-7-7-7-7-6-6-6-6-6-6-6-6-7-7-7-7-9-9-9-9-----------|
E|-----------------7-7-7-7-5-5-5-5-4-4-4-4-4-4-4-4-5-5-5-5-7-7-7-7-----------|
Guitar 2 (x2)
e|----------------------------------------------------------------------------------|
B|----------------------------------------------------------------------------------|
G|-13-13-13-13-13-13-13-13-10-10-10-10-9-9-9-9-8-8-8-8-8-8-8-8-9-9-9-9-11-11-11-11--|
D|----------------------------------------------------------------------------------|
A|-11-11-11-11-11-11-11-11-9--9--9--9--7-7-7-7-6-6-6-6-6-6-6-6-7-7-7-7-9--9--9--9---|
E|----------------------------------------------------------------------------------|

Verse (x4) Upstrokes
e|-7-7-7-7-7-7-7-7-7-7-7-7-5-5-5-5-4-4-4-4-4-4-4-4-5-5-5-5-7-7-7-7-----------|
B|-9-9-9-9-9-9-9-9-7-7-7-7-5-5-5-5-4-4-4-4-4-4-4-4-5-5-5-5-7-7-7-7-----------|
G|-9-9-9-9-9-9-9-9-8-8-8-8-6-6-6-6-5-5-5-5-5-5-5-5-6-6-6-6-8-8-8-8-----------|
D|-9-9-9-9-9-9-9-9-9-9-9-9-7-7-7-7-6-6-6-6-6-6-6-6-7-7-7-7-9-9-9-9-----------|
A|-7-7-7-7-7-7-7-7-9-9-9-9-7-7-7-7-6-6-6-6-6-6-6-6-7-7-7-7-9-9-9-9-----------|
E|-----------------7-7-7-7-5-5-5-5-4-4-4-4-4-4-4-4-5-5-5-5-7-7-7-7-----------|


Chorus
e|---------------------------------------------------------------------------|
B|---------------------------------------------------------------------------|
G|---------------------------------------------------------------------------|
D|-9-9-----------------------------------------------------------------------|
A|-7-7-------------6-6-------------4-4-4-4-4-4-4-4-6-6-7-7-7-7-7-7-7-7-------|
E|-----------------4-4-------------2-2-2-2-2-2-2-2-4-4-5-5-5-5-5-5-5-5-------|

Chorus Cont.
e|---------------------------------------------------------------------------|
B|---------------------------------------------------------------------------|
G|---------------------------------------------------------------------------|
D|-9-9-9-9-9-9-9-9-----------------------------------------------------------|
A|-7-7-7-7-7-7-7-7-6-6-6-6-6-6-6-6-4-4-4-4-4-4-4-4-6-6-7-7-7-7-7-7-7-7-------|
E|-----------------4-4-4-4-4-4-4-4-2-2-2-2-2-2-2-2-4-4-5-5-5-5-5-5-5-5-------|

Verse (x4) Upstrokes
e|-7-7-7-7-7-7-7-7-7-7-7-7-5-5-5-5-4-4-4-4-4-4-4-4-5-5-5-5-7-7-7-7-----------|
B|-9-9-9-9-9-9-9-9-7-7-7-7-5-5-5-5-4-4-4-4-4-4-4-4-5-5-5-5-7-7-7-7-----------|
G|-9-9-9-9-9-9-9-9-8-8-8-8-6-6-6-6-5-5-5-5-5-5-5-5-6-6-6-6-8-8-8-8-----------|
D|-9-9-9-9-9-9-9-9-9-9-9-9-7-7-7-7-6-6-6-6-6-6-6-6-7-7-7-7-9-9-9-9-----------|
A|-7-7-7-7-7-7-7-7-9-9-9-9-7-7-7-7-6-6-6-6-6-6-6-6-7-7-7-7-9-9-9-9-----------|
E|-----------------7-7-7-7-5-5-5-5-4-4-4-4-4-4-4-4-5-5-5-5-7-7-7-7-----------|

Chorus
e|---------------------------------------------------------------------------|
B|---------------------------------------------------------------------------|
G|---------------------------------------------------------------------------|
D|-9-9-----------------------------------------------------------------------|
A|-7-7-------------6-6-------------4-4-4-4-4-4-4-4-6-6-7-7-7-7-7-7-7-7-------|
E|-----------------4-4-------------2-2-2-2-2-2-2-2-4-4-5-5-5-5-5-5-5-5-------|

Chorus 2
e|---------------------------------------------------------------------------|
B|---------------------------------------------------------------------------|
G|---------------------------------------------------------------------------|
D|-9-9-9-9-9-9-9-9-----------------------------------------------------------|
A|-7-7-7-7-7-7-7-7-6-6-6-6-6-6-6-6-4-4-4-4-4-4-4-4-6-6-7-7-7-7-7-7-7-7-------|
E|-----------------4-4-4-4-4-4-4-4-2-2-2-2-2-2-2-2-4-4-5-5-5-5-5-5-5-5-------|

Bridge (x4)
e|---------------------------------------------------------------------------|
B|---------------------------------------------------------------------------|
G|---------------------------------------------------------------------------|
D|-6--6-6--------------------------------------------------------------------|
A|-4--4-4-6--6-6-7--7-7-9--9-9-----------------------------------------------|
E|--------4--4-4-5--5-5-7--7-7-----------------------------------------------|

Bridge 2
e|---------------------------12-12-12-12-12-12-12-12-12-12-12-12-12-12-12-12|
B|---------------------------x--x--x--x--x--x--x--x--x--x--x--x--x--x--x--x-|
G|-9~--------------9~--------9--9--9--9--9--9--9--9--9--9--9--9--9--9--9--9-|
D|-9~--------------9~-------------------------------------------------------|
A|-7~--------------7~-------------------------------------------------------|
E|-0~--------------0~-------------------------------------------------------|

Guitar 1 (x2)
e|---------------------------------------------------------------------------|
B|---------------------------------------------------------------------------|
G|---------------------------------------------------------------------------|
D|-9-9-9-9-9-9-9-9-----------------------------------------------------------|
A|-7-7-7-7-7-7-7-7-9-9-9-9-7-7-7-7-6-6-6-6-6-6-6-6-7-7-7-7-9-9-9-9-----------|
E|-----------------7-7-7-7-5-5-5-5-4-4-4-4-4-4-4-4-5-5-5-5-7-7-7-7-----------|
Guitar 2 (x2)
e|---------------------------------------------------------------------------|
B|---------------------------------------------------------------------------|
G|---------------------------------------------------------------------------|
D|---------------------------------------------------------------------------|
A|---------------------------------------------------------------------------|
E|---------------------------------------------------------------------------|


Guitar 1 (x2)
e|---------------------------------------------------------------------------|
B|---------------------------------------------------------------------------|
G|---------------------------------------------------------------------------|
D|-9-9-9-9-9-9-9-9-----------------------------------------------------------|
A|-7-7-7-7-7-7-7-7-9-9-9-9-7-7-7-7-6-6-6-6-6-6-6-6-7-7-7-7-9-9-9-9-----------|
E|-----------------7-7-7-7-5-5-5-5-4-4-4-4-4-4-4-4-5-5-5-5-7-7-7-7-----------|
Guitar 2 (x2)
e|----------------------------------------------------------------------------------|
B|----------------------------------------------------------------------------------|
G|-13-13-13-13-13-13-13-13-10-10-10-10-9-9-9-9-8-8-8-8-8-8-8-8-9-9-9-9-11-11-11-11--|
D|----------------------------------------------------------------------------------|
A|-11-11-11-11-11-11-11-11-9--9--9--9--7-7-7-7-6-6-6-6-6-6-6-6-7-7-7-7-9--9--9--9---|
E|----------------------------------------------------------------------------------|

End on
e|----------------------------------------------------------------------------|
B|----------------------------------------------------------------------------|
G|-9--------------------------------------------------------------------------|
D|-9--------------------------------------------------------------------------|
A|-7--------------------------------------------------------------------------|
E|-0--------------------------------------------------------------------------|


| /  slide up
| \  slide down
| h  hammer-on
| p  pull-off
| ~  vibrato
| +  harmonic
| x  Mute note
===============================================================================
Tap to rate this tab
# A B C D E F G H I J K L M N O P Q R S T U V W X Y Z