Song name
# A B C D E F G H I J K L M N O P Q R S T U V W X Y Z

Arrogant Sons Of Bitches - So Lets Go Nowhere tab

-------------------------------------------------------------------------------
	        So Let's Go! Nowhere! - The Arrogant Sons of Bitches
-------------------------------------------------------------------------------
Tabbed by: Warm-And-Fuzzy
Email: warmnfuzy@gmail.com

Check out ASOB on
http://www.asobrock.com/
http://www.myspace.com/arrogantsonsofbitches

Tuning: Standard - Capo on 1st fret for acoustic version of the song (move up a step)

Listen to the song for the changes, and rhythm.
Chords:
Intro/Verse/Chorus
E, A, B, Fadd9**, A, B, C#/Dbm, A, B
e|--0-0-2-8--8--8--0-2-4-0-2---------|
B|--0-2-4-8--8--8--2-4-5-2-4---------|
G|--1-2-4-10-9--10-2-4-6-2-4---------|
D|--2-2-4-10-10-10-2-4-6-2-4---------|
A|--2-0-2-8--8--8--0-2-4-0-2---------|
E|--0--------------------------------|

** Listen to the song for this change, if you put your middle finger where the 10 on the
string is, all you have to do is lift your pinky.

Main Riff(for acoustic version just play 1 note higher):
e|----------------------------------|
B|----------------------------------|
G|----------------------------------|
D|----------------------------------|
A|-0-0-4-0-4-0-7-6-----6---9-8-6----|
E|-----------------7-7---7----------|


===============================================================================
Tap to rate this tab
# A B C D E F G H I J K L M N O P Q R S T U V W X Y Z