Song name
# A B C D E F G H I J K L M N O P Q R S T U V W X Y Z

Arrogant Worms - Made Up tab

this is my made up song easy to play :)
intro
-------------------------------------------------------------|
-------------------------------------------------------------|
-------------------------------------------------------------|
-------------------------------------------------------------|
-------------------------------------------------------------|
0-0-0-0-0-0-0-0-3-5-0-0-0-0-0-0-0-0-3-5-0-0-0-0-0-0-0-0-5-3--|


middle
-------------------------------------------------------------|
-------------------------------------------------------------|
-------------------------------------------------------------|
-------------------------------------------------------------|
----------------5-7------------------5-7---------------------|
0-0-0-0-0-0-0-0-3-5-0-0-0-0-0-0-0-0-03-5-0-0-0-0-0-0-0-0-3-5-|


solo
------------------------------------------------------------|
------------------------------------------------------------|
0-0-0-0-0-0-0-0-3-5-0-0-0-0-0-0-0-0-3-5-0-0-0-0-0-0-0-0-5-3-|
------------------------------------------------------------|
------------------------------------------------------------|
------------------------------------------------------------|

END
-------------------------------------------------------------|
-------------------------------------------------------------|
-------------------------------------------------------------|
-------------------------------------------------------------|
-------------------------------------------------------------|
-0-0-0-0-0-0-0-0-3-3-3-3-3-3-3-3-3-3-5-5-5-5-5-5-5-5-5-5-5---|


you can add whatever tabs you want to this song, this song it is good with drums aswell.
:]
Tap to rate this tab
 
# A B C D E F G H I J K L M N O P Q R S T U V W X Y Z