Song name
# A B C D E F G H I J K L M N O P Q R S T U V W X Y Z

Arrogant Worms - The Assumtion Song tab

e---------1-1------1-1------I=x3
b---------2-2------2-2------I
g---------1-1---0--1-1------I
d-----0---------------------I
a---------------------------I
e---------------------------I


e---------1-1--------1-1----I=x3
b---------------------------I
g---------------0-----------I
d-----0---------------------I
a---------2-2--------2-2----I
e---------3-3--------2-3----I

Repeat during whole song
Tap to rate this tab
 
# A B C D E F G H I J K L M N O P Q R S T U V W X Y Z