Song name
# A B C D E F G H I J K L M N O P Q R S T U V W X Y Z

Arsenal - Porkeria tab

Song Title : Porkeria
Artist : Arsenal

Intro :::

e|-------------------------------------------------|
b|-------------------------------------------------|
g|-------------------------------------------------|
d|-------------------------------------------------|
a|-9--10---9--7--10--9--7--5--7--5--4--------------|
E|-7---8---7--5---8--7--5--3--5--3--2--------------|

e|-------------------------------------------------|
b|-------------------------------------------------|
g|-------------------------------------------------|
d|-------------------------------------------------|
a|-9-7-5-4-9-7-5-4-9-7-5-4-------------------------|
E|-7-5-3-2-7-5-3-2-7-5-3-2-------------------------|

Rythim Change and then the same chords:
______________________________________________________________________
Ke esta pasando kon el mundo

ke esta pasando kon mi vida

ya basta de egoismo

ya basta de porkeria

Esto es una porkeria

todo ya esta dekayendo

y solo aumenta mi rebeldia

En la era en ke vivimos

ya esta llena de avaricia

las deudas y el dinero

se apoderan de mi vida
Tap to rate this tab
# A B C D E F G H I J K L M N O P Q R S T U V W X Y Z