Guitaretab - guitar tabs
Song name
# A B C D E F G H I J K L M N O P Q R S T U V W X Y Z

Arsenal - Buy In Late tab

----------------------------------------------------------------------------
			     Buy in late - Arsenal
----------------------------------------------------------------------------

Tabbed by:Nicky Degheselle
Email:nikskeopnieuwonline1@hotmail.com

Tuning:standard

This is my second Arsenal tab:actually this song is much better than switch but it took 
quite a time to figure out the chords...
there are various strumming and picking patterns, i will write them out when i have some 
time but here u have the basics...

d=downstroke
u=upstroke

 intro:
e|-------------------------------------------------------------------------|
B|-------------------------------------------------------------------------|
G|-------------------------------------------------------------------------|
D|--44-555-5-44-55-4-------------x3----------------------------------------|
A|--------------------7-5-5-5----------------------------------------------|
E|-------------------------------------------------------------------------|
    du dud d du du d  d d d d
[ Tab from: http://www.guitaretab.com/a/arsenal/89673.html ]
e|-------------------------------------------------------------------------|
B|-------------------------------------------------------------------------|
G|-------------------------------------------------------------------------|
D|--44-555-5-44-5555555-4444444--------------------------------------------|
A|-------------------------------------------------------------------------|
E|-------------------------------------------------------------------------|
    du dud d du ddddddd ddddddd

 verse:
e|-------------------------------------------------------------------------|
B|---7-------7-------7-------7---------------------------------------------|
G|---7-------7-------7-------7---------------------------------------------|
D|---x(5)----x-------x-------x---------------------------------------------|
A|---5-------7-------x-------x---------------------------------------------|
E|-------------------7-------7---------------------------------------------|

---> THis are the chords used in the verse for the strumming-->listen to the song 
in the song u have some pickings just try some combinations and it will sound right...

 chorus:
e|-------------------------------------------------------------------------|
B|---7-------7-------7-------7---------------------------------------------|
G|---7-------7-------7-------7---------------------------------------------|
D|---x(5)----x-------x-------x---------------------------------------------|
A|---5-------7-------x-------x---------------------------------------------|
E|-------------------7-------7---------------------------------------------|

Same chords in the chorus...
enjoy... more detailed version upcoming...suggestions and corrections -->mail me

| /  slide up
| \  slide down
| h  hammer-on
| p  pull-off
| ~  vibrato
| +  harmonic
| x  Mute note
============================================================================
Related for Buy In Late tab
Advertisement will be closed in 10 seconds