Song name
# A B C D E F G H I J K L M N O P Q R S T U V W X Y Z

Arsonists Get All The Girls - Jazzy Geoffrey tab

Tabbed by:fendabenda
Email:teamseekers@hotmail.com

Tuning:Drop C

Riff A (4x)
Guitar on the left
e|---------------------------------------------------------------------------|
B|---------------------------------------------------------------------------|
G|----10-9---10-9------------------------------------------------------------|
D|-7-------7------10-7-------------------------------------------------------|
A|---------------------------------------------------------------------------|
E|---------------------------------------------------------------------------|

Guitar on right
e|---------------------------------------------------------------------------|
B|---------------------------------------------------------------------------|
G|------13-12-----13-12------------------------------------------------------|
D|--10--------10--------13-10------------------------------------------------|
A|---------------------------------------------------------------------------|
E|---------------------------------------------------------------------------|
Riff B (4x)
Guitar left
e|---------------------------------------------------------------------------|
B|---------------------------------------------------------------------------|
G|--------------7-8----------------------------------------------------------|
D|----7-8---7-8--------------------------------------------------------------|
A|--5-----5------------------------------------------------------------------|
E|---------------------------------------------------------------------------|

Guitar Right
e|---------------------------------------------------------------------------|
B|---------------------------------------------------------------------------|
G|------------------10-11----------------------------------------------------|
D|----10-11---10-11----------------------------------------------------------|
A|--8-------8----------------------------------------------------------------|
E|---------------------------------------------------------------------------|

Riff C (4x)
Guitar Left
e|------------------------------------------------------------------------------|
B|------------------------------------------------------------------------------|
G|------------------------------------------------------------------------------|
D|------10-9---10-9-------------------------------------------------------------|
A|----7------7------10-7--------------------------------------------------------|
E|------------------------------------------------------------------------------|

Guitar Right
e|---------------------------------------------------------------------------|
B|---------------------------------------------------------------------------|
G|---------------------------------------------------------------------------|
D|-------13-12----13-12------------------------------------------------------|
A|----10-------10-------13-10------------------------------------------------|
E|---------------------------------------------------------------------------|

Repeat Riff B (4x)

Riff D (4x)
e|--------------------------------------------|
B|--------------------------------------------|
G|----8-7-5---7-------------------------------|
D|----------8---9-8-7-8-9-8-7--3-4-3-0-1h2h3--|
A|--------------------------------------------|
E|--------------------------------------------|

e|-----------------------------------------------------|
B|-----------------------------------------------------|
G|----11-10-8----10------------------------------------|
D|------------11----12-11-10-11-12-11-10--7-6-3-4h5h6--|
A|-----------------------------------------------------|
E|-----------------------------------------------------|

End the song with an open C5 chord...

it should be right got kind of messed up on the last part but it sounds close. Listen to 
for the rhythm or else the tab will look much more difficult than it is.

| /  slide up
| \  slide down
| h  hammer-on
| p  pull-off
| ~  vibrato
| +  harmonic
| x  Mute note
Tap to rate this tab
# A B C D E F G H I J K L M N O P Q R S T U V W X Y Z