Song name
# A B C D E F G H I J K L M N O P Q R S T U V W X Y Z

Arsonists Get All The Girls - Save The Castle Screw The Princess tab

youtube-- hellothisisdaniel

Tuning: Drop C

|-----------------------------------------|
|-----------------------------------------|
|---7---9---10---7---9h10---9---9h10---9--|x2
|-----------------------------------------|
|---5---7---8-----------------------------|
|-----------------------------------------|

|------------------------------------------------------------------|
|------------------------------------------------------------------|
|-----------------------------14b---12---12-12h14p12---------------|
|---12-14-15-14-12-14-15-14--------------------------15-14-14-15---|
|------------------------------------------------------------------|
|------------------------------------------------------------------|
    .  .  .  .  .  .  .  .

|--------------------------18-17-15-17(x4)--17-15-14-15(x4)--15-14-11-14(x4)|
|---------------------------------------------------------------------------|
|---12-12h14p12-------------------------------------------------------------|
|---------------15-14-14----------------------------------------------------|
|---------------------------------------------------------------------------|
|---------------------------------------------------------------------------|

|--/14-15-171717-18-17-----------------15-18p15-----------------------------|
|-----------------------------------16----------16--------------------------|
|--------------------------------15----------------15-----15-14-15-/18-17---|
|-----------------------------17----------------------17--------------------|
|-----------------------15-18-----------------------------------------------|
|---------------------------------------------------------------------------|

|---------------17-20p17---------|
|------------19----------19------|
|---------19----------------19---|x2
|---17h19------------------------|
|--------------------------------|
|--------------------------------|

Play from the begining of sweeps twice.

Tap to rate this tab
# A B C D E F G H I J K L M N O P Q R S T U V W X Y Z