Song name
# A B C D E F G H I J K L M N O P Q R S T U V W X Y Z

Arsonists Get All The Girls - Robando De Los Muertos tab

Arsonists Get All The Girls - Robando de los Muertos

this is all i have so far, but its a start

beginning (during keyboard intro)

D--------------------------|
A--------------------------|
F--------------------------|
C-00-0000------------------|
G-00-0000------------------|
C-00-0000------------------|
pm.. ....
thats basically it, the strumming is probably not accurate but you can figure it out

after keyboard part

D----------------------|
A----------------------|
F--11-9-7-6-4-2-4------|
C---9-7-5-4-2-0-2------|
G-0--------------------|
C-0--------------------|
pm.

after they do that a few times, i think they begin muting the note immediately after 
it.

plz rate!
Tap to rate this tab
# A B C D E F G H I J K L M N O P Q R S T U V W X Y Z