Song name
# A B C D E F G H I J K L M N O P Q R S T U V W X Y Z

Arsonists Get All The Girls - Saturnine tab

Arsonists Get All The Girls
Saturnine
Portals

Tabbed by Cooter


d--------------------------------------------------------|
a--------------------------------------------------------|
f--------------------------------------------------------|
c--2h5-22---2h5-22-------2h5-22--------------------------|
g--2h5-22---2h5-22-------2h5-22--------------------------|
c--2h5-22-2-2h5-22--222--2h5-22--222--2222333311112222---| x4
                                      ................
Harmony: Last Part
d--------------------------------------------------------|
a--------------------------------------------------------|
f--------------------------------------------------------|
c-------------------------------------4444555533334444---|
g--2h5-22---2---2---22---2h5-22--22----------------------|
c--------------------------------------------------------| x1

d-----------------------------------------------------------------------|
a--------------------------------3--------------------------------------|
f--------------------------------6--------------------------------------|
c--0--3/5-6--33-3---0--3/5-6--33-----0--3/5-6--33-3--0-0--0-0--0-0--0-0-|
g--0--3/5-6--33-3---0--3/5-6--33-----0--3/5-6--33-3--0-0--0-0--0-0--0-0-|
c--0--3/5-6--33-3---0--3/5-6--33-----0--3/5-6--33-3--0-0--0-0--0-0--0-0-|
             ..               ..               ..
d--------------------------------------------------------|
a--------------------------------------------------------|
f--------------------------------------------------------|
c--------------------------------------------------------|
g--------2-------2-------2------3---3---3----------------|
c--4-3-2---4-3-2---4-3-2----222---2---2------------------|x4
                            ...   .   .
Harmony: Last two parts
d--------------------------------------------------------|
a--------------------------------------------------------|
f--------------------------------------------------------|
c--------------------------------------------------------|
g--------5-------5-------5------6---6---6----------------|
c--6-5-4---6-5-4---6-5-4----444---4---4------------------|x2
                            ...   .   .
Tap to rate this tab
# A B C D E F G H I J K L M N O P Q R S T U V W X Y Z