Song name
# A B C D E F G H I J K L M N O P Q R S T U V W X Y Z

Arsonists Get All The Girls - Beast Fist tab

Artist: Arsonists Get All The Girls
Song: Beast Fist!
Tuning: Drop C (CGCFAD)
Tabber: Anthony Buck
Legend;
. = Palm Mute
x = Repeat
" = Tremolo
h = Hammer On
p = Pull Off
* = Pinch Harmonic
\ = Legato Slide


D|---------------|
A|---------------|
F|---------------|
C|---4-----------|
G|-3-2-3-2-3-1-2-|
C|-3---3-2-3-1-2-|x4 (On 4th time thru instead of 2nd fret, play a harmonic on the 
5th fret on the G(F) string.


*Rest for 1 measure*


D|---0-----------|
A|---0-----------|
F|---0-----------|
C|---------------|
G|-3---3-2-3-1-2-|
C|-3---3-2-3-1-2-|x4



D|---------------------|
A|---------------------|
F|-12"--9h12p9---------|
C|---------------------|
G|---------------------|
C|--------------000-0--|x7
                ... .


D|----------------------|
A|----------------11*\--|
F|-----------9-12-------|
C|------8-11------------|
G|-7-10-----------------|
C|----------------------|x1




D|---------------|
A|---------------|
F|---------------|
C|---4-----------|
G|-3-2-3-2-3-1-2-|
C|-3---3-2-3-1-2-|x4



D|---------------|
A|---------------|
F|---------------|
C|-3-4-3---------|
G|-1-2-1-3-2-3---|
C|-------3-2-3---|x8



D|------|
A|------|
F|------|
C|-3----|
G|-3----|
C|-3----|x1
Tap to rate this tab
 
# A B C D E F G H I J K L M N O P Q R S T U V W X Y Z