Song name
# A B C D E F G H I J K L M N O P Q R S T U V W X Y Z

Art Brut - People In Love tab

Amazing song
Right then

The intro on lead is
e|---------0----0--5-2-0-------------0-----------------------------------|
B|-----0-2---0-2---------2-0-----0-2----0-2-1-0 (not sure on that part)--|
G|---2------2----------------2--2------2---------------------------------|
D|-----------------------------------------------------------------------|
A|-----------------------------------------------------------------------|
E|-----------------------------------------------------------------------|

and rhythm guitar is playing

A, C#m, D, F, G


then both play D, E

then the verse is the same as the intro


then D, F#, A


to every girl, thats ever been with me .. (so pass me the wine..
e|------------------------------------------------------------------------------------|
B|------------------------------------------------------------------------------------|
G|--9-9-9-7-7-7-6-6-6-----------------------------------------------------------------|
D|-----------=------------------------------------------------------------------------|
A|--7-7-7-5-5-5-4-4-4-----------------------------------------------------------------|
E|------------------------------------------------------------------------------------|

D                  E
I've got over you, eventually

D            F#     A
What becomes of the broken hearted?
They're drunk for a few weeks then back were they started


then same again

and i dont know the end riff but the chords are just

D, F#, A for most of it

i've tabbed all you need to play you just need to work out the order.
Tap to rate this tab
# A B C D E F G H I J K L M N O P Q R S T U V W X Y Z