Song name
# A B C D E F G H I J K L M N O P Q R S T U V W X Y Z

Art Brut - Nag Nag Nag Nag tab

Help us improve GuitareTab! Take a short survey!
intro

e-------------|----------------------13-13-10-10-8-8---------------|
b-------------|---------8-8-10-10----------------------10-10-------|
g--12-10-9--|-10-10------------------------------------------------|
d--12-10-9--|------------------------------------------------------|(x2)
a--10--8-7--|------------------------------------------------------|
e-------------|----------------------------------------------------|

verse

e------------------------------------------|
b------------------------------------------|(you'll get the rhythm)
g--7-7-7--7-7-7--10-10-10--10-10-10--------|
d--7-7-7--7-7-7--10-10-10--10-10-10--------|
a--5-5-5--5-5-5--8---8---8---8--8---8------|
e------------------------------------------|

prechorus

e--8-8-6-6-5-5---------10-10-8-8-----------------------------------13-13-10-10-8-8------------|
b-----------------[6]-3--------------10-10-8-8------------8-10-10----------------------10-10--|
g----------------------------------------------------10-10------------------------------------|
d---------------------------------------------------------------------------------------------|
a---------------------------------------------------------------------------------------------|
e---------------------------------------------------------------------------------------------|

chorus

(play verse chords over top)
e-------------------------------------------------|
b-------------------------------------------------|
g-------------------------------------------------|
d-----7-5-7----7-5-7-----10-8-7----10-8-7---------|
a--5----------5---------8-----------8-------------|
e-------------------------------------------------|

break('i used to have a bedroom to hide in')

e-------------------------------------------------|
b-------------------------------------------------|
g--7----10----5-----------------------------------|
d--7----10----5-----------------------------------|
a--5-----8----3-----------------------------------|
e-------------------------------------------------|

last chords are

e-------------------------------------------------|
b-------------------------------------------------|
g--12--10--9--10--7-------------------------------|
d--12--10--9--10--7-------------------------------|
a--10---8---7---8--5------------------------------|
e-------------------------------------------------|
Related for Nag Nag Nag Nag tab