Song name
# A B C D E F G H I J K L M N O P Q R S T U V W X Y Z

Art Brut - Alcoholics Unanimous tab

Art Brut – Alcoholics Unanimous


Verse:
------------------------------|
------------------------------|
-11-11-9-9-11-11-9------------|
-11-11-9-9-11-11-9-9-9-11-11--|
-9--9--7-7-9--9--7-9-9-11-11--|
-------------------7-7-9--9---|


Bridge: („bring me tea...“) 
------------------------------|
------------------------------|
-7---9---5--------------------|
-7-7-7-9-5-5-4444444444444444-|
-5-7-7-7-3-5-4444444444444444-|
---5---7---3-2222222222222222-|

then
---------------------------------------|
---------------------------------------|
-7---9---5------------1111111111111111-|
-7-7-7-9-5-5-44444444-1111111111111111-|
-5-7-7-7-3-5-44444444-9-9-9-9-9-9-9-9--|
---5---7---3-22222222------------------|


Chorus:

---------------------------------------|
---------------------------------------|
-14----11----6----9----11----6---------|
-14-8x-11-8x-6-8x-9-8x-11-8x-6-8x------|
-12----9-----4----7----9-----4---------|
---------------------------------------|

---------------------------------------|
---------------------------------------|
-14----11----6----9----11----6---------|
-14-8x-11-8x-6-8x-9-8x-11-8x-6-8x------|
-12----9-----4----7----9-----4---------|
---------------------------------------|


That’s it!

The riffs just repeat for the rest of the song. Just listen to it for the right strumming pattern.

Hope you enjoy it. It’s a great fun song to play along.
Tap to rate this tab
# A B C D E F G H I J K L M N O P Q R S T U V W X Y Z