Song name
# A B C D E F G H I J K L M N O P Q R S T U V W X Y Z

Art Brut - Modern Art tab

Intro/Verse:
                              
E||--------------------------|
B||--------------------------|
G||--10--10--10--10--10--10--|
D||--11--11--11--11--11--11--|
A||--11--11--11--11--11--11--|
E||--9---9---9---0---0---0---|
                           
--------------------------|
--------------------------|
--10--10--10--10--10--10--|
--11--11--11--11--11--11--|
--11--11--11--11--11--11--|
--9---9---9---0---0---0---|
                     
--------------------|
--------------------|
--6--6--6--6--6--6--|
--7--7--7--7--7--7--|
--7--7--7--7--7--7--|
--5--5--5--0--0--0--|
                     
--------------------|
--------------------|
--6--6--6--6--6--6--|
--7--7--7--7--7--7--|
--7--7--7--7--7--7--|
--5--5--5--0--0--0--|

Chorus: "Modern Art makes me want to rock out"
                     
--------------------------|
--------------------------|
--10--10--10--10--10--10--|
--11--11--11--11--11--11--|
--11--11--11--11--11--11--|
--9---9---9---0---0---0---|
                          
--------------------------|
--------------------------|
--10--10--10--10--10--10--|
--11--11--11--11--11--11--|
--11--11--11--11--11--11--|
--9---9---9---0---0---0---|
                                      
--------------------|----------------|
--------------------|----------------|
--6--6--6--6--6--6--|----------------|
--7--7--7--7--7--7--|--5------4------|
--7--7--7--7--7--7--|--5------4------|
--5--5--5--0--0--0--|--3------2~-----|

In the verse, the second guitar plays:

w/wide vibrato
E||--------------------------|
B||--------------------------|
G||--12---12---12--12--12--13|
D||--------------------------|
A||--------------------------|
E||--------------------------|
Tap to rate this tab
 
# A B C D E F G H I J K L M N O P Q R S T U V W X Y Z