Song name
# A B C D E F G H I J K L M N O P Q R S T U V W X Y Z

Art Brut - Formed A Band tab

FORMED A BAND:


Chorus/Bridge:

e|---------------------------------|
b|---------------------------------|
g|---------------------------------|
d|-2-2-2-2-2-2-2-2-2-2-2-2-2-2-2-2-|
a|-0-0-0-0-0-0-0-0-0-0-0-0-0-0-0-0-|
e|---------------------------------|

e|-0-0-0-0-0-0-0-0-0-0-0-0-0-0-|
b|-0-0-0-0-0-0-0-0-0-0-0-0-0-0-|
g|-0-0-0-0-0-0-0-2-2-2-3-3-3-3-|
d|-2-2-2-2-2-2-2-2-2-2-2-2-2-2-|
a|-0-0-0-0-0-0-0-0-0-0-0-0-0-0-|
e|-----------------------------|


Verses:

e|------------|
b|------------|
g|-9-----7--5-|
d|-9--9--7--5-|
a|-7--9--5--3-|
e|----7-------|


lead guitar
e|-0--12------------10-------------10----------------------|
b|----------10--12-------10--12----------------------------|
g|-----------------------------------------12---11---4^----|
d|---------------------------------------------------------|
a|---------------------------------------------------------|
e|---------------------------------------------------------|
Tap to rate this tab
 
# A B C D E F G H I J K L M N O P Q R S T U V W X Y Z