Song name
# A B C D E F G H I J K L M N O P Q R S T U V W X Y Z

Art Brut - Bad Weekend tab

----------------------------------------------------------------------------
			     SONG NAME - Band Name
----------------------------------------------------------------------------
Tabbed by:Junkiechrist
Email:dragoonfive0@yahoo.com

Tuning: EADGBE

I've tried to finish what Dovemouse started.  I use the second version intro
and tabbed the rest of
the song.  It's not perfect but I would think it's close enough.

E-----------------|---------------|-----------------|------------------|
B-----------------|---------------|-----------------|------------------|
G-----------------|---------------|---4-4-----4---4-|---4-4-----4---4--|
D----0-2-4-2-0-4--|---0-2-4-2-0-4-|-----------------|------------------|
A-2---------------|-0-------------|-3-----3-3---3---|------------------|
E-----------------|---------------|-----------------|-3-----3-3---3----|


E---------|--------|-------|-------|
B---12----|---12---|---7---|---5---|
G---14----|---14---|---9---|---7---|
D---14----|---14---|---9---|---7---|
A---12----|---12---|---7---|---5---|
E---------|--------|-------|-------|

E------------------------|-----------------------|
B--12-12-12-12-12-12-12--|_12-12-12-12-12-12-12--|
G--14-14-14-14-14-14-14--|-14-14-14-14-14-14-14--|
D--14-14-14-14-14-14-14--|-14-14-14-14-14-14-14--|
A--12-12-12-12-12-12-12--|-12-12-12-12-12-12-12--|
E------------------------|-----------------------|

E----------------|----------------|
B-7-7-7-7-7-7-7--|-5-5-5-5-5-5-5--|
G-9-9-9-9-9-9-9--|-7-7-7-7-7-7-7--|
D-9-9-9-9-9-9-9--|-7-7-7-7-7-7-7--|
A-7-7-7-7-7-7-7--|-5-5-5-5-5-5-5--|
E----------------|----------------|

This is about the three major parts of the song.  Just listen to the song
and use your own intuition while playing.
Tap to rate this tab
# A B C D E F G H I J K L M N O P Q R S T U V W X Y Z