Guitaretab - guitar tabs
Song name
# A B C D E F G H I J K L M N O P Q R S T U V W X Y Z

Art Of Dying - I Will Be There tab

-------------------------------------------------------------------------------
	             I Will Be There - Art of Dying
-------------------------------------------------------------------------------
www.artofdyingmusic.com

Tabbed by: Bogardeth
Email: tamer_of_the_squirrels@yahoo.com

Tuning: DADGBe
[ Tab from: http://www.guitaretab.com/a/art-of-dying/187096.html ]
Most of this song is the same thing over and over. Figure out the strum pattern 
yourself, but it's basically 8 Strums each.

e|-------------|
B|-------------|
G|-------------| Intro / Chorus
D|-2--7--4--7--|
A|-2--7--4--7--|
D|-2--7--4--7--|

e|-------------|
B|-------------|
G|-4--9--6--9--| Verse
D|-2--7--4--7--|
A|-2--7--4--7--|
D|-2--7--4--7--|

e|-------------|
B|-------------|
G|-8--9--8--9--| PreChorus
D|-6--7--6--7--|
A|-6--7--6--7--|
D|-6--7--6--7--|

**Sorry this tab isn't made well, but I'm in a hurry.
Related for I Will Be There tab
Advertisement will be closed in 10 seconds