Art Of Dying - Best I Can tab

-----------------------------------------------------------------------------
		       Best I Can-Art Of Dying

-----------------------------------------------------------------------------
Tabbed by: Tatted-Nitmare
Email: lost_epherian86@yahoo.com

This is only my second tab Iíve written so it might not be perfect but Iím sure its 
about 98 percent correct.  Listen to the song for the tempo and transitions of the fills.  
Please rate and comment so I can post more up in the future.   THX and enjoy!!!

Tuning: Standard Capo on 4

Intro and Verse
e|--------3-----------3-----------3-----------3-----|
B|-----------3-----------3-----------3-----------3--|
G|-----------------------------------------2--------| 3x
D|-----2-----------2--------------------2-----------|
A|--2-----------3--------------2--------------------|
E|--------------------------3-----------------------|

After 3rd time play (a)                                              (b)
e|--------3----|                                     e|--------3----|
B|-----------3-|                                     B|-----------3-|
G|-------------| 4x (play entire Verse 3x at end     G|-----2-------|
D|-----2-------|     of 3x play (a) 2x and (b) 2x)   D|--2----------|
A|--3----------|                                     A|-------------|
E|-------------|                                     E|-------------|


Chorus
e|--------3-----------3-----------3-----------3-----------3-----------3----|
B|-----------3-----------3-----------3-----------3-----------3-----------3-|
G|-----------------------------2-----------2-------------------------------|
D|--------------------------2-----------2--------------2-----------2-------|
A|-----2-----------2--------------------------------2-----------2----------|
E|--3-----------3----------------------------------------------------------|

e|--------3-----------3-----|
B|-----------3-----------3--|
G|--------------------------| Repeat Chorus 2x
D|-----2-----------2--------|
A|--3-----------3-----------|
E|--------------------------|


Fill 1
e|--------3-----------3-----------3-----------3-----|
B|-----------3-----------3-----------3-----------3--|
G|-----------------------------------------2--------| 4x
D|-----2-----------2--------------------2-----------|
A|--2-----------3--------------2--------------------|
E|--------------------------3-----------------------|


Verse
e|--------3-----------3-----------3-----------3-----|
B|-----------3-----------3-----------3-----------3--|
G|-----------------------------------------2--------| 3x
D|-----2-----------2--------------------2-----------|
A|--2-----------3--------------2--------------------|
E|--------------------------3-----------------------|

After 3rd time play (a)                 (b)
e|--------3----|                     e|--------3----|
B|-----------3-|                     B|-----------3-|
G|-------------| 2x  (Same as verse) G|-----2-------| 2x
D|-----2-------|                     D|--2----------|
A|--3----------|                     A|-------------|
E|-------------|                     E|-------------|


Play Chorus 4x

Then play Fill 1 only 2x


Fill 2
e|--------3-----------3-----------3-----------3-----------3----|
B|-----------3-----------3-----------3-----------3-----------3-|
G|-------------------------------------------------------------|
D|-----2-----------2-----------2-----------2-----------2-------|
A|--3-----------3-----------0-----------0-----------2----------|
E|-------------------------------------------------------------|

e|--------3-----------3-----------3-----------3-----------3----|
B|-----------3-----------3-----------3-----------3-----------3-|
G|-----------------2-----------2-------------------------------|
D|-----2--------2-----------2--------------2-----------2-------|
A|--2-----------------------------------3-----------3----------|
E|-------------------------------------------------------------|

e|--------3-----------3----|
B|-----------3-----------3-|
G|-------------------------|
D|-----2-----------2-------|
A|--0-----------0----------|
E|-------------------------|


Ending Fill 1, Chorus, and Outro are all strummed and picked in the song, below is the 
chords if you want to strum it instead.

E m7 e|--3-|  C add9 -3-  D sus2sus4 -3-  G -3-|
     B|--3-|         -3-             -3-    -3-|
     G|----|         ---             -2-    ---|
     D|--2-|         -2-             -2-    ---|
     A|--2-|         -3-             ---    -2-|
     E|----|         ---             ---    -3-|


Repeat Fill 1

Repeat Chorus 4x

Outro
e|--------3-----------3-----------3-----------3-----------3-----------3----|
B|-----------3-----------3-----------3-----------3-----------3-----------3-|
G|-----------------------------2-----------2-------------------------------|
D|--------------------------2-----------2--------------2-----------2-------|
A|-----2-----------2--------------------------------2-----------2----------|
E|--3-----------3----------------------------------------------------------|

e|--------3-----------3-----|
B|-----------3-----------3--|
G|--------------------------| Repeat Outro 4x
D|-----2-----------2--------|
A|--3-----------3-----------|
E|--------------------------|
Tap to rate this tab
 
# A B C D E F G H I J K L M N O P Q R S T U V W X Y Z