Art Of Dying - Straight Across My Mind tab

Artist =  Art of Dying
Song   =  Straight Across My Mind
Album  =  Vices And Virtues



---------------------------------------------------------------------------
LEGEND:
<#>  =  natural harmonic.. (lightly touch your fingure over the indicated
        fret and pick the note)
 #~  =  give the indicated note a slight wammy
---------------------------------------------------------------------------


Play the first riff (or most of the first and throw in the second riff to
change it up if you want) for a about 15 seconds, first you'll hear the
bass go then after a few beats Johnny says "here we go.." then you switch
over to intro riff #2..
INTRO RIFFS #1
Guitar 1                                        Repeat x3
E| |--------------|--------------------------------------| |
B|o|--------------|---<5>-------<7>~----<5>-------<7>~---|o|
G| |--<7>--<5>~---|-------<5>~--------------<5>~---------| |
D| |--------------|--------------------------------------| |
A|o|--------------|--------------------------------------|o|
E| |--------------|--------------------------------------| |
Guitar 2                                                     Repeat x3
E|----------------| |------------------------------------|------------| |
B|----------------|o|------------------------------------|------------|o|
G|----------------| |------------------------------------|-----<5>~---| |
D|----------------| |------------------------------------|-<5>--------| |
A|----------------|o|--------------------------<7>-<5>---|------------|o|
E|----------------| |------------------------------------|------------| |



INTRO RIFF #2
"here we go.."
E|----------------------------------------------------------|
B|-----------------<5>-------<7>~----<5>--------------------|
G|--<7>--<5>~----------<5>~---------------------------------|
D|-----------------------------------------9-9-9-9-9-8-8-8--|
A|-----------------------------------------9-9-9-9-9-8-8-8--|
E|-----------------------------------------7-7-7-7-7-6-6-6--|
This riff dosn't have the 2nd guitar behind it, it's just played along with
the bass and then drums for the chord part.




This is the main riff i believe.. This riff leads up to the verse and is
also played after the 1st chorus and as the outro..
MAIN RIFF                                                 Repeat x4
E| |----------------------------------------------------------------| |
B|o|----------------------------------------------------------------|o|
G| |----------------------------------------------------------------| |
D| |--4-6---6-7-6---6-4-6-6-6-9-6--6-4-6--6-7-6--6-9-9-9-9-9-8-8-8--| |
A|o|--4-6---6-7-6---6-4-6-6-6-9-6--6-4-6--6-7-6--6-9-9-9-9-9-8-8-8--|o|
E| |--2-4---4-5-4---4-2-4-4-4-7-4--4-2-4--4-5-4--4-7-7-7-7-7-6-6-6--| |







This is my first tab so it might not be right, but it sounds close enough
to me..
I havn't figured out the verse or anything else yet but when i do i'll add
on to this.
Tap to rate this tab
 
# A B C D E F G H I J K L M N O P Q R S T U V W X Y Z