Song name
# A B C D E F G H I J K L M N O P Q R S T U V W X Y Z

Art Of Dying - Die Trying tab

ARTIST:     Art Of Dying
SONG:       Die Trying
TABBED FOR: Lead/Rhythm Guitar
TABBED BY:  HardRockerDude

(Play with song mp3 to figure out the rhythm)
This was the first song I tabbed for, I was tired of it being nowhere on
online....So let me know what you guys think!!! KEEP ROCKING GUYS!!!

(Remember to tune your guitar from low string to high: B,F#,B,E,G#,C#)

PLEASE READ DESCRIPTION AT THE BOTTOM OF THE PAGES TO UNDERSTAND SYMBOLS!!!!!
(READ ALL DIRECTIONS ON TOP OF VERSES ALSO)!!!!


Pre Intro: 		(WAIT FOR DRUMS IN BEGINNING)
		(UP AND DOWN MOTION WHILE STRUMMING HARMONICS)

C#----------5h-5h---5h--5h-5h-5h---5h--5h-5h-5h---5h--5h-5h-------------------|
G#----------5h-5h---5h--5h-5h-5h---5h--5h-5h-5h---5h--5h-5h-------------------|
E ----------5h-5h---5h--5h-5h-5h---5h--5h-5h-5h---5h--5h-5h-------------------|
B ----------5h-5h---5h--5h-5h-5h---5h--5h-5h-5h---5h--5h-5h-------------------|
F#----------5h-5h---5h--5h-5h-5h---5h--5h-5h-5h---5h--5h-5h-------------------|
B ----------5h-5h---5h--5h-5h-5h---5h--5h-5h-5h---5h--5h-5h-------------------|

Main Intro:
			(PLAY THIS INTRO PART 2X)
C#------------------------------------------------------------------------------------|
G#------------------------------------------------------------------------------------|
E ------------------------------------------------------------------------------------|
B --2m---3-2-0-2m---3-2-0-2m---3-2-0-5-5-0---2m---3-2-0-2m---3-2-0-2m---3-2-0-3--3--0-|
F#--2m---3-2-0-2m---3-2-0-2m---3-2-0-5-5-0---2m---3-2-0-2m---3-2-0-2m---3-2-0-3--3--0-|
B --2m---3-2-0-2m---3-2-0-2m---3-2-0-5-5-0---2m---3-2-0-2m---3-2-0-2m---3-2-0-3--3--0-|


Verse 1:
				(PLAY MUTED PART 2X)
C#-------------------------------------------------------------------|
G#-------------------------------------------------------------------|
E -------------------------------------------------------------------|
B --2(HOLD)----------------------------------------------------------|
F#--2(HOLD)------(9-9---9---7-9-9---9---7-9-9---9---7-9-10-9-7-9-10--|
B --2(HOLD)----------------------------------------------------------|
		  (^^^^^THIS PART IS MUTED ON RIGHT HAND^^^^^)

Pre Chorus:

[C#---------------------------------------------------]
[G#--------0-----------0-----------0-----------0------]
[E ------0---0-------0---0-------0---0-------0--------]
[B ----2-------2---0-------0---0-------0---0----------]
[F#--0-----------3-----------2-----------3------------]
[B ---------------------------------------------------]


Chorus:

(PLAY THIS PART OUT SIDE OF BOX 3X BEFORE PLAYING BOXED PART) (PLAY BOXED PART 2X)
C#---------------------------------------[-------------------------------------]
G#---------------------------------------[-------------------------------------]
E ---------------------------------------[-------------------------------------]
B --2---3-2-0-0----5---5-5-5-5-5s--7-7-7-[--10-----10-----------12-------12----]
F#--2---3-2-0-0----3---3-3-3-3-3s--5-5-5-[---7------7-----------10-------10----]
B --2---3-2-0-0--------------------------[---7------7-----------10-------10----]


C#------------------------------------------------------------------------------|
G#------------------------------------------------------------------------------|
E ------------------------------------------------------------------------------|
B --2---3-2-0-2---3-2-0-2---3-2-0-5-5-0---2---3-2-0-2---3-2-0-2---3-2-0-3--3--0-|
F#--2---3-2-0-2---3-2-0-2---3-2-0-5-5-0---2---3-2-0-2---3-2-0-2---3-2-0-3--3--0-|
B --2---3-2-0-2---3-2-0-2---3-2-0-5-5-0---2---3-2-0-2---3-2-0-2---3-2-0-3--3--0-|


Verse 2:
				(PLAY MUTED PART 2X)
C#-------------------------------------------------------------------|
G#-------------------------------------------------------------------|
E -------------------------------------------------------------------|
B --2(HOLD)----------------------------------------------------------|
F#--2(HOLD)------(9-9---9---7-9-9---9---7-9-9---9---7-9-10-9-7-9-10--|
B --2(HOLD)----------------------------------------------------------|
		  (^^^^^THIS PART IS MUTED ON RIGHT HAND^^^^^)


Pre Chorus:

[C#---------------------------------------------------]
[G#--------0-----------0-----------0-----------0------]
[E ------0---0-------0---0-------0---0-------0--------]
[B ----2-------2---0-------0---0-------0---0----------]
[F#--0-----------3-----------2-----------3------------]
[B ---------------------------------------------------]


Chorus:

   (PLAY THIS PART OUT SIDE OF BOX 3X) 		 (PLAY THIS PART 2X)
C#---------------------------------------[------------------------------------]
G#---------------------------------------[------------------------------------]
E ---------------------------------------[------------------------------------]
B --2---3-2-0-0----5---5-5-5-5-5s--7-7-7-[--10------10------12------12--------]
F#--2---3-2-0-0----3---3-3-3-3-3s--5-5-5-[---7-------7------10------10--------]
B --2---3-2-0-0--------------------------[---7-------7------10------10--------]


Interlude:

		  	(*STRUM CHORDS IN UP AND DOWN MOTION*)
C#-----------------------------------------------------------------------------------|
G#-----------------------------------------------------------------------------------|
E -----------------------------------------------------------------------------------|
B -5--5-5-5-5s--7--7-7-7-7s--9--9-9-9-9s--7--7-7-7-7s--5--5-5-5-5s--7--7-7-7-7s------|
F#-3--3-3-3-3s--5--5-5-5-5s--7--7-7-7-7s--5--5-5-5-5s--3--3-3-3-3s--5--5-5-5-5s------|
 ------------------------------------------------------------------------------------|

C#--------------------------------------------------------------------------------------|
G#--------------------------------------------------------------------------------------|
E --------------------------------------------------------------------------------------|
B -9--9-9-9s--12--12-12-12-12s--5--5-5-5-5s--7--7-7-7-7s---9---7---5----10----12-----2--|(HOLD)
F#-7--7-7-7s--10--10-10-10-10s--3--3-3-3-3s--5--5-5-5-5s---7---5---3-----7----10-----2--|(HOLD)
B -----------------------------------------------------------------------7----10-----2--|(HOLD)
							  (^SLOW TEMPO DOWN AT THIS PART^)

C#----------5h-5h---5h--5h-5h-5h---5h--5h-5h-5h---5h--5h-5h-------------------|
G#----------5h-5h---5h--5h-5h-5h---5h--5h-5h-5h---5h--5h-5h-------------------|
E ----------5h-5h---5h--5h-5h-5h---5h--5h-5h-5h---5h--5h-5h-------------------|
B ----------5h-5h---5h--5h-5h-5h---5h--5h-5h-5h---5h--5h-5h-------------------|
F#----------5h-5h---5h--5h-5h-5h---5h--5h-5h-5h---5h--5h-5h-------------------|
B ----------5h-5h---5h--5h-5h-5h---5h--5h-5h-5h---5h--5h-5h-------------------|


Chorus:
			(PLAY THIS WHOLE PART 2X WITH ALL REPEATS)

(PLAY THIS PART OUT SIDE OF BOX 3X BEFORE PLAYING BOXED PART) (PLAY BOXED PART 2X)
C#---------------------------------------[-------------------------------------]
G#---------------------------------------[-------------------------------------]
E ---------------------------------------[-------------------------------------]
B --2---3-2-0-0----5---5-5-5-5-5s--7-7-7-[--10-----10-10-----12-------12-12----]
F#--2---3-2-0-0----3---3-3-3-3-3s--5-5-5-[---7------7--7-----10-------10-10----]
B --2---3-2-0-0--------------------------[---7------7--7-----10-------10-10----]


Outro:

C#------------------------------------------------------------------------------------|
G#------------------------------------------------------------------------------------|
E ------------------------------------------------------------------------------------|
B --2m---3-2-0-2m---3-2-0-2m---3-2-0-5-5-0---2m---3-2-0-2m---3-2-0-2m---3-2-0-3--3m---|
F#--2m---3-2-0-2m---3-2-0-2m---3-2-0-5-5-0---2m---3-2-0-2m---3-2-0-2m---3-2-0-3--3m---|
B --2m---3-2-0-2m---3-2-0-2m---3-2-0-5-5-0---2m---3-2-0-2m---3-2-0-2m---3-2-0-3--3m---|


SYMBOL MEANINGS:

"M" MEAN MUTE RIGHT HAND
"H" MEANS HARMONICS
"S" MEANS SLIDE ON GUITAR FRETS TO NEXT NOTES
Tap to rate this tab
 
# A B C D E F G H I J K L M N O P Q R S T U V W X Y Z