Song name
# A B C D E F G H I J K L M N O P Q R S T U V W X Y Z

Art Of Dying - Say What You Need To Say chords

Highlighted       Show chord diagrams
Art Of Dying
Let the Fire Burn
Say What You Need To Say

Tabbed: 07/05/12
By: TheHawx
The is just the parts of the song because I dont
know the lyrics well enough. I'll bring out more
AoD tabs soon :-)


Verse -

E|----------------|
A|-2--------------|
D|----4-----4-----|
G|-------0--------|
B|----------------|
e|----------------|               


E|----------------|
A|-5--------------|
D|----4-----4-----|
G|-------0--------|
B|----------------|
e|----------------|


E|----------------|   
A|----------------|
D|----0-----------|
G|-------2-----2--| (x2)
B|----------4-----|
e|----------------|


Pre-Chorus-

Em


Chorus-

G  D  A

G  D  A

G  D  A  Bm

G  D  A

Bridge:

Bm  D  G

Bm  D  G
Tap to rate this tab
# A B C D E F G H I J K L M N O P Q R S T U V W X Y Z