Song name
# A B C D E F G H I J K L M N O P Q R S T U V W X Y Z

Art Of Dying - I Will Be There tab

Tabbed by: TheAnarchy

The whole song is in DADGBe tunning.

I chose the separate each guitar with ________________

The little picking introduction

e|-----------------------------------------------------------------|
B|-----------------------------------------------------------------|
G|--9-------9-------9-13-------13-------13-14------8h9-8------6----| 
D|----11------11---------14-------14-------------9-------9----7----|
A|-------11------11---------14-------14--------9-----------9--7----|
D|-----------------------------------------------------------------|

_________________________________________
First play that part alone without any other guitar.
Guitar 1
e|----------------------------------------|
B|----------------------------------------|
G|------9-------9-------6-------6---------| x2
D|----9---9---9---9---7---7---7---7-------|
A|--7-------7-------7-------7-------------|
D|----------------------------------------|


Then a second guitar starts while the first play the same thing.
Guitar 1
e|----------------------------------------|
B|----------------------------------------|
G|------9-------9-------6-------6---------| x2
D|----9---9---9---9---7---7---7---7-------|
A|--7-------7-------7-------7-------------|
D|----------------------------------------|
__________________________________________
Guitar 2 (figure out the strum pattern)
e|---------------|
B|---------------|
G|---------------| x2
D|---2----7------|
A|---2----7------|
D|---2----7------|

____________________________________________
Then both guitar switch for the next part while a third one come.
Guitar 1
e|----------------------------------|
B|----------------------------------|
G|------6-------6-------6-------6---| x2
D|----9---9---9---9---7---7---7---7-|
A|--6-------6-------7-------7-------|
D|----------------------------------|
_______________________________________
Guitar 2
e|-----------------|
B|-----------------|
G|-----------------|x2
D|--6----7---------|
A|--6----7---------|
D|--6----7---------|
________________________________________
Guitar 3(do a slight bend over at the end of the part)
e|-------------------------------------------------------------|
B|-------------------------------------------------------------|
G|--8-8-8-8-8-8-8-8-4-4-4-4-4-4-4-4-8-8-8-8-8-8-8-8------------|
D|--------------------------------------------------6-6-6-6-6-6|
A|-------------------------------------------------------------|
D|-------------------------------------------------------------|
    * * * * * * * * * * * * * * * * * * * * * * * *
______________________________________________
Then the chorus starts.

Guitar 1
e|--------------------------------|
B|--------------------------------| x2
G|--------------------------------|
D|--2(x8)-7(x8)4(x8)7(x8)------|
A|--2------7-----4-----7----------|
D|--2------7-----4-----7----------|
________________________________________________
Guitar 2 (figure out the strum pattern)
e|-------------------|
B|-------------------| x2
G|-------------------|
D|--2--7--4--7-------|
A|--2--7--4--7-------|
D|--2--7--4--7-------|
___________________________________________________
Guitar 3
e|-----------------------------------------------------------------|
B|-----------------------------------------------------------------|
G|-----------------------------------------------------------------|x2
D|--6-6-6-6-6-6-6-6-6-6-6-6-6-6-6-6-6-6-6-6-6-6-6-6-7-7-7-7-7-7-7-7|
A|-----------------------------------------------------------------|
D|-----------------------------------------------------------------|
___________________________________________________________
Then it goes back to the Verse with a slight difference

Guitar 1
e|----------------------------------------|
B|----------------------------------------|
G|------9-------9-------6-------6---------| x4
D|----9---9---9---9---7---7---7---7-------|
A|--7-------7-------7-------7-------------|
D|----------------------------------------|
_______________________________________________________
Guitar 2 (figure out the strum pattern)
e|---------------|
B|---------------|
G|---------------| x4
D|---2----7------|
A|---2----7------|
D|---2----7------|
______________________________________________
Guitar 3
e|-------------------|
B|---9\4-4/6---------| x4
G|-------------------|
D|-------------------|
A|-------------------|
D|-------------------|
_______________________________________________
Then the next part
Guitar 1
e|----------------------------------|
B|----------------------------------|
G|------6-------6-------6-------6---| x2
D|----9---9---9---9---7---7---7---7-|
A|--6-------6-------7-------7-------|
D|----------------------------------|
________________________________________________
Guitar 2
e|-----------------|
B|-----------------|
G|-----------------|x2
D|--6----7---------|
A|--6----7---------|
D|--6----7---------|
___________________________________________________
Guitar 3(do a slight bend over at the end of the part)
e|-------------------------------------------------------------|
B|-------------------------------------------------------------|
G|--8-8-8-8-8-8-8-8-4-4-4-4-4-4-4-4-8-8-8-8-8-8-8-8------------|
D|--------------------------------------------------6-6-6-6-6-6|
A|-------------------------------------------------------------|
D|-------------------------------------------------------------|
    * * * * * * * * * * * * * * * * * * * * * * * *
____________________________________________________________
Guitar 1
e|--------------------------------|
B|--------------------------------| 
G|--------------------------------|
D|--2(x8)-7(x8)4(x8)7(x8)------|
A|--2------7-----4-----7----------|
D|--2------7-----4-----7----------|

Guitar 1
e|--------------------------------|
B|--------------------------------| 
G|--------------------------------|
D|--2(x8)-7(x8)4(x8)7(x16)-----|
A|--2------7-----4-----7----------|
D|--2------7-----4-----7----------|
_____________________________________________________
Guitar 2 (figure out the strum pattern)
e|-------------------|
B|-------------------| 
G|-------------------|
D|--2--7--4--7-------|
A|--2--7--4--7-------|
D|--2--7--4--7-------|
______________________________________________________________
Guitar 3
e|-----------------------------------------------------------------|
B|-----------------------------------------------------------------|
G|-----------------------------------------------------------------|x2
D|--6-6-6-6-6-6-6-6-6-6-6-6-6-6-6-6-6-6-6-6-6-6-6-6-7-7-7-7-7-7-7-7|
A|-----------------------------------------------------------------|
D|-----------------------------------------------------------------|

Then at the end of the second you had

Guitar 3

e|-------------------|
B|-------------------|
G|-------------------|
D|----9-9-9-9-9-9-9-9|
A|-------------------|
D|-------------------|
_________________________________________________________
Then The Bridge
Guitar 1
e|--------------------------------|
B|--------------------------------| x2
G|--------------------------------|
D|--2(x8)-7(x8)4(x8)7(x8)------|
A|--2------7-----4-----7----------|
D|--2------7-----4-----7----------|
_____________________________________________________________
Guitar 2 (figure out the strum pattern)
e|-------------------|
B|-------------------| 
G|-------------------|
D|--2--7--4--7-------|
A|--2--7--4--7-------|
D|--2--7--4--7-------|
__________________________________________________________
Guitar 3
e|-----------------------------------|
B|------6/9-9-9-9-9-------6/9-9-9-9-9|
G|6-6-6-------------6-6-6------------|
D|-----------------------------------|
A|-----------------------------------|
D|-----------------------------------|

Guitar 3
e|-----------------------------------------------|
B|------9/11-11-11-11-11-13-13-13-13-13-14-14-14-|
G|6-6-6------------------------------------------|
D|-----------------------------------------------|
A|-----------------------------------------------|
D|-----------------------------------------------|

Guitar 3
e|-----------------------------------|
B|------6/9-9-9-9-9-------6/9-9-9-9-9|
G|6-6-6-------------6-6-6------------|
D|-----------------------------------|
A|-----------------------------------|
D|-----------------------------------|

Guitar 3
e|-------------------------------------------------|
B|------9/11-11-11-11-11-13-13-13-13-13-14-14-14-13|
G|6-6-6--------------------------------------------|
D|-------------------------------------------------|
A|-------------------------------------------------|
D|-------------------------------------------------|
__________________________________________________________
Then
Guitar 1
e|----------------------------------|
B|----------------------------------|
G|------6-------6-------6-------6---| x4
D|----9---9---9---9---7---7---7---7-|
A|--6-------6-------7-------7-------|
D|----------------------------------|
____________________________________________________________
Guitar 2
e|-----------------|
B|-----------------|
G|-----------------|x4
D|--6----7---------|
A|--6----7---------|
D|--6----7---------|
__________________________________________________________
Guitar 1
e|--------------------------------|
B|--------------------------------| 
G|--------------------------------|
D|--2(x8)-7(x8)4(x8)7(x8)------|
A|--2------7-----4-----7----------|
D|--2------7-----4-----7----------|

Guitar 1
e|--------------------------------|
B|--------------------------------| 
G|--------------------------------|
D|--2(x8)-7(x8)4(x8)7(x16)-----|
A|--2------7-----4-----7----------|
D|--2------7-----4-----7----------|
______________________________________________________
Guitar 2 (figure out the strum pattern)
e|-------------------|
B|-------------------| 
G|-------------------|
D|--2--7--4--7-------|
A|--2--7--4--7-------|
D|--2--7--4--7-------|
_______________________________________________
Guitar 3
e|-----------------------------------------------------------------|
B|-----------------------------------------------------------------|
G|-----------------------------------------------------------------|x2
D|--6-6-6-6-6-6-6-6-6-6-6-6-6-6-6-6-6-6-6-6-6-6-6-6-7-7-7-7-7-7-7-7|
A|-----------------------------------------------------------------|
D|-----------------------------------------------------------------|

Same as before had

Guitar 3
e|-------------------|
B|-------------------|
G|-------------------|
D|----9-9-9-9-9-9-9-9|
A|-------------------|
D|-------------------|
_________________________________________________________
Guitar 1
e|--------------------------------|
B|--------------------------------| 
G|--------------------------------|
D|--2(x8)-7(x8)4(x8)7(x8)------|
A|--2------7-----4-----7----------|
D|--2------7-----4-----7----------|

Guitar 1
e|----------------------------------|
B|----------------------------------| 
G|----------------------------------|
D|--2(x8)-7(x8)4(x8)7(x16)-2-----|
A|--2------7-----4-----7------2-----|
D|--2------7-----4-----7------2-----|

__________________________________________________
Guitar 2 (figure out the strum pattern)
e|-------------------|
B|-------------------| 
G|-------------------|
D|--2--7--4--7-------|
A|--2--7--4--7-------|
D|--2--7--4--7-------|
___________________________________________________
Guitar 3
e|-----------------------------------|
B|------6/9-9-9-9-9-------6/9-9-9-9-9|
G|6-6-6-------------6-6-6------------|
D|-----------------------------------|
A|-----------------------------------|
D|-----------------------------------|

Guitar 3
e|-----------------------------------------------|
B|------9/11-11-11-11-11-13-13-13-13-13-14-14-14-|
G|6-6-6------------------------------------------|
D|-----------------------------------------------|
A|-----------------------------------------------|
D|-----------------------------------------------|

Guitar 3
e|-----------------------------------|
B|------6/9-9-9-9-9-------6/9-9-9-9-9|
G|6-6-6-------------6-6-6------------|
D|-----------------------------------|
A|-----------------------------------|
D|-----------------------------------|

Guitar 3
e|-------------------------------------------------------------------------|
B|------9/11-11-11-11-11-13-13-13-13-13-13-13-13-14-14-14-14-14-14-14-14-13|
G|6-6-6--------------------------------------------------------------------|
D|-------------------------------------------------------------------------|
A|-------------------------------------------------------------------------|
D|-------------------------------------------------------------------------|

*:palm mute
/:slide up
\:slide down
H:Hammer On
Tap to rate this tab
 
# A B C D E F G H I J K L M N O P Q R S T U V W X Y Z