Song name
# A B C D E F G H I J K L M N O P Q R S T U V W X Y Z

Art Vs Science - Parlez Vous Francais tab

                    Parlez Vous Francais - Art Vs Science

Any issues email me at georgia_grillz@hotmail.com or leave a comment.

This is the main riff, it runs throughout most of the song, listen out for when it 
from single notes to chords.
e|-------------------------------------------------------------------------|
B|-------------------------------------------------------------------------|
G|-------------------------------------------------------------------------|
D|-------------------------------------------------------------------------|
A|-------------------------------------------------------------------------|
E|--1-1--1--1-1-3-4-1---1-1--1--1-1-3-4-1---1-1--1--1-1-3-4-1---8-8--11-11-|

e|-------------------------------------------------------------------------|
B|-------------------------------------------------------------------------|
G|-------------------------------------------------------------------------|
D|--3-3--3--3-3-5-6-3---3-3--3--3-3-5-6-3---3-3--3--3-3-5-6-3--10-10-13-13-|
A|--3-3--3--3-3-5-6-3---3-3--3--3-3-5-6-3---3-3--3--3-3-5-6-3--10-10-13-13-|
E|--1-1--1--1-1-3-4-1---1-1--1--1-1-3-4-1---1-1--1--1-1-3-4-1---8-8--11-11-|

The bouncy techno parts could probably be done with a whammy bar, but I am yet to tab it.
Tap to rate this tab
# A B C D E F G H I J K L M N O P Q R S T U V W X Y Z