Song name
# A B C D E F G H I J K L M N O P Q R S T U V W X Y Z

Artcell - Oniket Prantor tab

Oniket Prantor Intro
Artcell
Tabbed By:Tanvir Ahmed

E--------------------------------------------|
B-----------0----------------0---------------|
G-4-----4-----4---3-----3------3-------------|
D-6--6------------4---4----------------------|
A-6---------------4--------------------------|
E--------------------------------------------|

E----------------------------------------------|
B----------0-----------------------------------|
G-1----1------1----------1-------3-------------|
D-2--2----------------2------------------------|
A-2----------------2----------4----------------|
E----------------------------------------------|
Tap to rate this tab
# A B C D E F G H I J K L M N O P Q R S T U V W X Y Z