Song name
# A B C D E F G H I J K L M N O P Q R S T U V W X Y Z

Artcell - Poth Chola tab

Help us improve GuitareTab! Take a short survey!
Hi this is Atanu. This is the best tabs i could get for this awsome intro. Try it, I am 
sure you'll love it.


e|-3-----5-----3------2-----3-2-|
B|---3-----3------3-----3-------|
G|-----0-----0------0-----0-----|
D|------------------------------|
A|------------------------------|
E|-3----------------------------|


e|-3-----5-----3------2-----3-0-|
B|---3-----3------3-----3-------|
G|-----0-----0------0-----0-----|
D|------------------------------|
A|-3----------------------------|
E|------------------------------|


e|-3-----5-----3------2-----3-2-|
B|---3-----3------3-----3-------|
G|-----0-----0------0-----0-----|
D|------------------------------|
A|-2----------------------------|
E|------------------------------|


e|-3-----5-----7------5-----3-5-|
B|---3-----5------5-----5-------|
G|-----0-----0------0-----0-----|
D|------------------------------|
A|-3----------------------------|
E|------------------------------|
Related for Poth Chola tab