Song name
# A B C D E F G H I J K L M N O P Q R S T U V W X Y Z

Arthur Browns Kingdom Come - Time Captives tab

Time Captives
Arthur Brown's Kingdom Come
Journey

Lyrics and Music by Arthur Brown
Transcribed by safeasmilk90 (thepiemancometh_13@hotmail.com)

Standard Tuning EADGBE

Intro (Bass arranged for guitar)
e ------------------------------------------------|
B ------------------------------------------------|
G ------------------------------------------------|
D ------------------------------------------------|
A ------------------------------------------------|
E 1-----------1-----------1-----------1-----------|

Then this part comes in over the top (guitar with wah, listen to recording for wah technique)
e 1-1-1-1-1-1-1-1-1-1-1-1-1-1-1-1-1-1-1-1-1-1-1-1-|
B ------------------------------------------------|
G ------------------------------------------------|
D ------------------------------------------------|
A ------------------------------------------------|
E ------------------------------------------------|

Breakdown just before the fast section of mad swirling synths and general noise
e 2-2-2-0-0-0-------------------------------------------------------------|
B ------------6-6-6-4-4-4-5-5-5-3-3-3-4-4-4-2-2-2-3-3-3-1-1-1-2-2-2-0-0-0-|
G ------------------------------------------------------------------------|
D ------------------------------------------------------------------------|
A ------------------------------------------------------------------------|
E ------------------------------------------------------------------------|

e ------------------------------------------------|
B ------------------------------------------------|
G 5-5-5-3-3-3-4-4-4-2-2-2-3-3-3-1-1-1-2-2-2-0-0-0-|
D ------------------------------------------------|
A ------------------------------------------------|
E ------------------------------------------------|

Then returns to this for the remainder of the first part of the lyrics
e 1-1-1-1-1-1-1-1-1-1-1-1-1-1-1-1-1-1-1-1-1-1-1-1-|
B ------------------------------------------------|
G ------------------------------------------------|
D ------------------------------------------------|
A ------------------------------------------------|
E ------------------------------------------------|

Main verse riff (synth arranged for guitar)
e ---------------------------------------------------------|
B ---------------------------------------------------------|
G ---------------------------------------------------------|
D ---------------------------------------------------------|
A ------3--4-----3--1--------------3--4-----3--1-----------|
E 1-----------------------4--1-----------------------4--1--|

When the song moves to the slower part, the guitar plays
e ---------------------------------|
B ---------------------------------|
G --------6-------8-------8--5-----|
D 3-------6-------8-------8--5--3--|
A 3-------4-------6-------6--3--3--|
E 1-----------------------------1--|

Outro
e --------------------------------|
B --------------------------------|
G --------6-------3---------------|
D 3-------6-------3-------3-------|
A 3-------4-------1-------3-------|
E 1-----------------------1-------|

That's it

Enjoy!

http://en.wikipedia.org/wiki/Arthur_Brown%27s_Kingdom_Come (For verification purposes as 
band does not exist on the database. The band itself split up in 1974 and therefore 
not have an official website. Arthur Brown's own website can be found at http://www.arthurbrownmusic.com/)
Tap to rate this tab
# A B C D E F G H I J K L M N O P Q R S T U V W X Y Z