Song name
# A B C D E F G H I J K L M N O P Q R S T U V W X Y Z

Articles Of Faith - Bad Attitude tab

-------------------------------------------------------------------------------
			     Bad Attitude - Articles of Faith
-------------------------------------------------------------------------------
Tabbed by:ADozier
Email:

Tuning:Standard

Intro: Play four times
e|---------------------------------------------------------------------------|
B|---------------------------------------------------------------------------|
G|-----766------766------766-4-2---------------------------------------------|
D|4444-766-4444-766-4444-766-4-2-5-------------------------------------------|
A|4444-544-4444-544-4444-544-2-o-5-------------------------------------------|
E|2222-----2222-----2222---------3-------------------------------------------|
Verse:Play four times
e|---------------------------------------------------------------------------|
B|---------------------------------------------------------------------------|
G|-99999999-7/6-7/6-7/6------------------------------------------------------|
D|-99999999-7/6-7/6-7/6------------------------------------------------------|
A|-77777777-5/4-5/4-5/4------------------------------------------------------|
E|---------------------------------------------------------------------------|
Pre-Verse: play twice
e|---------------------------------------------------------------------------|
B|---------------------------------------------------------------------------|
G|11-11-11-11-11-11-11-11--------11-11-11-11-11-11-11-11-99999999------------|
D|11-11-11-11-11-11-11-119999999911-11-11-11-11-11-11-11-99999999------------|
A|9--9--9--9--9--9--9--9-999999999--9--9--9--9--9--9--9--77777777------------|
E|-----------------------77777777--------------------------------------------|




Order of song

Intro
Verse
Intro
Verse
Pre-Verse
Intro
************************************

| /   slide up
| \   slide down
| h   hammer-on
| p   pull-off
| ~   vibrato
| +   harmonic
| x   Mute note
| b   Bend
| pb  Pre-bend
| br  Bend release
| pbr Pre-bend release
| brb Bend release bend

************************************
Tap to rate this tab
# A B C D E F G H I J K L M N O P Q R S T U V W X Y Z