Song name
# A B C D E F G H I J K L M N O P Q R S T U V W X Y Z

Artificial Fear - Stone Tower Temple tab

my names Todd lane forgive me if this tab is not right my number is 2566063110 um give 
me some feed back
h hammer on
~ valbrato
() pinch harmonics
p pull off
intro
e|-----------------------------------------------------------------------|
b|-----------------------------------------------------------------------|
g|----2--------2----------9---9---9-10~--9---9---9-7~---9---9---9--(10)--|
d|----2-----2--2-----2--7---7---7------7---7---7------7---7---7----------|
a|-------3--2-----3--2---------------------------------------------------|
e|-------1--------1------------------------------------------------------|
chorus
e|------8-7------8-7-h8-7--------8-7------8-7-h8-7-------|
b|---10-----8-10----------8---10-----8-10-----------8-10-|
g|--------------------------9----------------------------|
d|-------------------------------------------------------|
a|-------------------------------------------------------|
e|-------------------------------------------------------|
[repeat intro]

bridge
e|--------------------------------------------------------|
b|----10--10--8--10--8---------10--10--8--10--8-----------|
g|----------------------10--9--------------------10--9--7-|
d|--------------------------------------------------------|
a|--------------------------------------------------------|
e|--------------------------------------------------------|
this is as far as I have gotten playing it by ear if you think you know the rest of the 
bridge part let me no at ltodd41@yahoo.com there is solo to this song but don't know it 
either so for give me this close as i got by ear
after bridge play chorus then play into again
Tap to rate this tab
# A B C D E F G H I J K L M N O P Q R S T U V W X Y Z