Artillery - Not A Nightmare tab

D-------------------------|
A-------------------------|
F-------------------------|
C-----2h3---2h3h2h0-------|
G-2-2---------------------|
D-0-0---------------------|

Play 3 times But play he third one like this


D--------------------------------------------|
A--------------------------3-----------------|
F-----------------------5-2------------------|
C-----2h3---2h3h2h0----5---------------------|
G-2-2-----------------3-------3harmonic.-----|
D-0-0----------------------------------------|

 And repeat this!
Tap to rate this tab
 
# A B C D E F G H I J K L M N O P Q R S T U V W X Y Z