Guitaretab - guitar tabs
Song name
# A B C D E F G H I J K L M N O P Q R S T U V W X Y Z

Artillery - Breaking Wheel tab

NOTE: This is not my tab It is tabbed by Dan the lead singer and guitar player of the 
wheel (formerly Artillery) It's not 100% correct but it's pretty damn close


d|----------------------------------------|
A|----------------------------------------|
F|----------------------------------------|
C|------0---15-------------12-------------|X14
G|---------------15-----------------------|
D|--------------------13------------------|


D|-0--0--0--0--3p0--2p0--1p0--|X5


d|-------------------------------|---------------------------------|
A|-------------------------------|---------------------------------|
F|-------------------------------|---------------------------------|
C|---------------------------4---|---------------------------7-----|
G|-------------3--2--5--4--------|-------------5--4--7--6----------|
D|---0--3--2---------------------|---2--5--4-----------------------|

D|-2--2--2--2--5p2--4p2--3p2--|X4


D|-0--0--0--0--3p0--2p0--1p0--|X4


d|-------------------------------|---------------------------------|
A|-------------------------------|---------------------------------|
F|-------------------------------|---------------------------------|
C|---------------------------4---|---------------------------7-----|
G|-------------3--2--5--4--------|-------------5--4--7--6----------|
D|---0--3--2---------------------|---2--5--4-----------------------|


d|---------------------|-------------------------------|
A|---------------------|-------------------------------|
F|---------------------|--4-4-7-7-6~~~-----------------|
C|---------------------|-------------------------------|X4
G|--7-XX-4-5-XX-4-5-XX-|--2-2-5-5-4~~~-----------------|
D|--5-XX-2-3-XX-2-3-XX-|-------------------------------|


D|-0--0--0--0--3p0--2p0--1p0--|X4


d|-------------------------------|---------------------------------|
A|-------------------------------|---------------------------------|
F|-------------------------------|---------------------------------|
C|---------------------------4---|---------------------------7-----|
G|-------------3--2--5--4--------|-------------5--4--7--6----------|
D|---0--3--2---------------------|---2--5--4-----------------------|


D|-2--2--2--2--5p2--4p2--3p2--|X4


D|-0--0--0--0--3p0--2p0--1p0--|X4


d|-------------------------------|---------------------------------|
A|-------------------------------|---------------------------------|
F|-------------------------------|---------------------------------|
C|---------------------------4---|---------------------------7-----|
G|-------------3--2--5--4--------|-------------5--4--7--6----------|
D|---0--3--2---------------------|---2--5--4-----------------------|


d|---------------------------------------------------------|
A|---------------------------------------------------------|
F|---7---7---7/10---10---10---13---13---13---/9---9---9----|
C|-0---0---0------0----0----0----0----0----0----0---0---0--|
G|---------------------------------------------------------|
D|---------------------------------------------------------|

[ Tab from: http://www.guitaretab.com/a/artillery/75376.html ]
d|-----------------------------|-----------------------7-----|
A|-----------------------------|-----------------------8-----|
F|-10---10---10---/5---5---5---|---3---3-------3----3--9-----|
C|----0----0----0----0---0---0-|-5---5---5-5-5---5-----9-----|
G|-----------------------------|-----------------------7-----|
D|-----------------------------|-----------------------0-----|


d|---------XX----------------|
A|---------XX----------------|
F|---------XX--4-7-6---------|
C|---------XX----------------| X4
G|-7--4-5--XX--2-5-4---------|
D|-5--2-3--XX----------------|


d|---------------------------------------------------------|
A|---------------------------------------------------------|
F|---7---7---7/10---10---10---13---13---13---/9---9---9----|
C|-0---0---0------0----0----0----0----0----0----0---0---0--|
G|---------------------------------------------------------|
D|---------------------------------------------------------|


d|-----------------------------|-----------------------7-----|
A|-----------------------------|-----------------------8-----|
F|-10---10---10---/5---5---5---|---3---3-------3----3--9-----|
C|----0----0----0----0---0---0-|-5---5---5-5-5---5-----9-----|
G|-----------------------------|-----------------------7-----|
D|-----------------------------|-----------------------0-----|


d|----------------------------------------|
A|----------------------------------------|
F|----------------------------------------|
C|------0---15-------------12-------------|X8
G|---------------15-----------------------|
D|--------------------13------------------|


Then when it starts to modulate:
d|---------------------------------------------------------------------|
A|---------------------------------------------------------------------|
F|---------------------------------------------------------------------|
C|--0--15----------12------15----------12------15----------12----------|
G|---------15------------------15------------------15------------------|
D|-------------13------15----------13------16----------13--------------|

d|------------------------------------------------------------------------|
A|------------------------------------------------------------------------|
F|------------------------------------------------------------------------|
C|------15----------12--0--15----------12--0--15----------12--------------|
G|----------15-----------------15-----------------15----------------------|
D|--12----------13-----------------13-----------------13------------------|


d|--10----10-10----10----10-10----10^12-12-12-12----10^12-12-12-12--|------|
A|--10----10-10----10----10-10----10----10-10-10----10----10-10-10--|------|
F|--10----10-10----10----10-10----10----10-10-10----10----10-10-10--|------|
C|--0-----0--0-----0-----0--0-----0-----0--0--0-----0-----0--0--0---|x2----|
G|------------------------------------------------------------------|------|
D|------------------------------------------------------------------|------|


d|--10----10-10----10----10-10----10^12-12-12-12----10^12-12-12-12--|-10----|
A|--10----10-10----10----10-10----10----10-10-10----10----10-10-10--|-10----|
F|--10----10-10----10----10-10----10----10-10-10----10----10-10-10--|-10----|
C|--0-----0--0-----0-----0--0-----0-----0--0--0-----0-----0--0--0---|-0-----|
G|------------------------------------------------------------------|-------|
D|------------------------------------------------------------------|-------|
Related for Breaking Wheel tab
Advertisement will be closed in 10 seconds