Song name
# A B C D E F G H I J K L M N O P Q R S T U V W X Y Z

Artist Vs Poet - Runaway tab

Artist: Artist vs Poet
Album: Self-titled EP
Song: Runaway

Tab by: joseluis92

Tuning: Drop C#
C# G# C# F# A# D#

Actually, they play this half a step down
I watched their video and in the pre-chorus part
The lead guitarist was playing that part like this

D#|--------0------------------|
A#|----3-----3----------------|
F#|--0---0-----0--------------|

And the only way that could happen is by having those strings half a step down

So you can play it like this:

D# G# C# F# A# D#

And you’d have to move everything on the low E
Two frets to the left

However, I find this song easier to play by playing
Barre power chords but its your choice

OH MAI GAWD, just play it like this:

LEAD

D#|------------------------------|
A#|------------------------------|
F#|------------------------------|
C#|--5-X-X---------7---777-9-7-5-|     x2
G#|--5-X-X-5---5---7---777-9-7-5-|
C#|--5-X-X---7---7-7---777-9-7-5-|

D#|----------------------------|
A#|----------7-------10-8-7----|
F#|--7-9-7-9---9-7-------------|
C#|----------------7-----------|       x2
G#|----------------------------|
C#|----------------------------|

The first two times lead doesnt play

D#|------------------------------|
A#|------------------------------|
F#|------------------------------|
C#|--5-------7-7-7-7---777-9-7-5-|     x2
G#|--5-------5-5-7-7---777-9-7-5-|
C#|--5-----------7-7---777-9-7-5-|

D#|--------3-------------------|
A#|----3-----3-----------------|
F#|--0---0-----0---------------|
C#|----------------------------|
G#|----------------------------|
C#|----------------------------|

D#|--------0------------------|
A#|----3-----3----------------|
F#|--0---0-----0--------------|
C#|---------------------------|     x7
G#|---------------------------|
C#|---------------------------|

For the chorus, you can use either of these chords
Personally, i like the second way better
If you wanna play it the other way
Just switch each chord for the corresponding one

D#|---------|----------|--------|--------|
A#|------14-|-------15-|-----12-|-----10-|
F#|-18------|--19------|-16-----|-14-----|
C#|----=-11-|-----=-12-|----=-9-|----=-7-|
G#|-16------|--17------|-14-----|-12-----|
C#|---------|----------|--------|--------|

Play the first two bars twice

D#|---------------------------------------------------|
A#|---------------------------------------------------|
F#|--18-19-19-19---19-19-19----18-19-19-19---19-19-19-|
C#|---------------------------------------------------|    x2
G#|--16-17-17-17---17-17-17----16-17-17-17---17-17-17-|
C#|---------------------------------------------------|

D#|-----------------------------------------------|
A#|-----------------------------------------------|
F#|--18--18-18--18-18-18-18-\-14--14-14--14-14-14-|
C#|-----------------------------------------------|
G#|--16--16-16--16-16-16-16-\-12--12-12--12-12-12-|
C#|-----------------------------------------------|

D#|------------------------------------------------|
A#|------------------------------------------------|
F#|--18--18-18--18-18-18-18-/-19-\-16-16--16-16-16-|
C#|------------------------------------------------|
G#|--16--16-16--16-16-16-16-/-17-\-14-14--14-14-14-|
C#|------------------------------------------------|

D#|---------------------------------------------------|
A#|---------------------------------------------------|
F#|--18-19-19-19---19-19-19----18-19-19-19---19-19-19-|
C#|---------------------------------------------------|
G#|--16-17-17-17---17-17-17----16-17-17-17---17-17-17-|
C#|---------------------------------------------------|

D#|-----------------------------------------------|
A#|-----------------------------------------------|
F#|--18--18-18--18-18-18-18-\-14--14-14--14-14-14-|
C#|-----------------------------------------------|
G#|--16--16-16--16-16-16-16-\-12--12-12--12-12-12-|
C#|-----------------------------------------------|

D#|------------------------------|
A#|------------------------------|
F#|------------------------------|
C#|--5-------7-7-7-7---777-9-7-5-|     x4
G#|--5-------5-5-7-7---777-9-7-5-|
C#|--5-----------7-7---777-9-7-5-|

D#|--------3-------------------|
A#|----3-----3-----------------|
F#|--0---0-----0---------------|
C#|----------------------------|
G#|----------------------------|
C#|----------------------------|

D#|--------0------------------|
A#|----3-----3----------------|
F#|--0---0-----0--------------|
C#|---------------------------|     x7
G#|---------------------------|
C#|---------------------------|

Play the first two bars twice

D#|---------------------------------------------------|
A#|---------------------------------------------------|
F#|--18-19-19-19---19-19-19----18-19-19-19---19-19-19-|
C#|---------------------------------------------------|    x2
G#|--16-17-17-17---17-17-17----16-17-17-17---17-17-17-|
C#|---------------------------------------------------|

D#|-----------------------------------------------|
A#|-----------------------------------------------|
F#|--18--18-18--18-18-18-18-\-14--14-14--14-14-14-|
C#|-----------------------------------------------|
G#|--16--16-16--16-16-16-16-\-12--12-12--12-12-12-|
C#|-----------------------------------------------|

D#|------------------------------------------------|
A#|------------------------------------------------|
F#|--18--18-18--18-18-18-18-/-19-\-16-16--16-16-16-|
C#|------------------------------------------------|
G#|--16--16-16--16-16-16-16-/-17-\-14-14--14-14-14-|
C#|------------------------------------------------|

D#|---------------------------------------------------|
A#|---------------------------------------------------|
F#|--18-19-19-19---19-19-19----18-19-19-19---19-19-19-|
C#|---------------------------------------------------|
G#|--16-17-17-17---17-17-17----16-17-17-17---17-17-17-|
C#|---------------------------------------------------|

D#|-----------------------------------------------|
A#|-----------------------------------------------|
F#|--18--18-18--18-18-18-18-\-14--14-14--14-14-14-|
C#|-----------------------------------------------|
G#|--16--16-16--16-16-16-16-\-12--12-12--12-12-12-|
C#|-----------------------------------------------|

Play the following 2 bars twice, with the second bar being played
twice the second time around

D#|------------------------------------|
A#|------------------------------------|
F#|------------------------------------|
C#|--9-XX-XXX-XXX-XXX-7-XX-XXX-XXX-XXX-|
G#|--9-XX-XXX-XXX-XXX-7-XX-XXX-XXX-XXX-|
C#|--9-XX-XXX-XXX-XXX-7-XX-XXX-XXX-XXX-|

D#|----------------------------|
A#|----------------------------|
F#|----------------------------|
C#|--5-5-5---4-5-7-9-7---------|
G#|--5-5-5---4-5-7-9-7---------|
C#|--5-5-5---4-5-7-9-7---------|

D#|----------------------------|
A#|----------------------------|
F#|----------------------------|
C#|----------7-7-7-7-7~--------|
G#|--4-------7-7-7-7-7~--------|
C#|--4--x16--7-7-7-7-7~--------|
     *

Play the following two bars twice

D#|---------------------------------------------------|
A#|---------------------------------------------------|
F#|--18-19-19-19---19-19-19----18-19-19-19---19-19-19-|
C#|---------------------------------------------------|   x2
G#|--16-17-17-17---17-17-17----16-17-17-17---17-17-17-|
C#|---------------------------------------------------|

D#|-----------------------------------------------|
A#|-----------------------------------------------|
F#|--18--18-18--18-18-18-18-\-14--14-14--14-14-14-|
C#|-----------------------------------------------|
G#|--16--16-16--16-16-16-16-\-12--12-12--12-12-12-|
C#|-----------------------------------------------|

D#|---------------------|
A#|---------------------|
F#|--19-------18--------|
C#|---------------------|
G#|--17-------16--------|
C#|---------------------|

D#|------------------------------------------------|
A#|------------------------------------------------|
F#|--18--18-18--18-18-18-18-/-19-\-16-16--16-16-16-|
C#|------------------------------------------------|
G#|--16--16-16--16-16-16-16-/-17-\-14-14--14-14-14-|
C#|------------------------------------------------|

D#|---------------------------------------------------|
A#|---------------------------------------------------|
F#|--18-19-19-19---19-19-19----18-19-19-19---19-19-19-|
C#|---------------------------------------------------|
G#|--16-17-17-17---17-17-17----16-17-17-17---17-17-17-|
C#|---------------------------------------------------|

D#|-----------------------------------------------|
A#|-----------------------------------------------|
F#|--18--18-18--18-18-18-18-\-14--14-14--14-14-14-|
C#|-----------------------------------------------|
G#|--16--16-16--16-16-16-16-\-12--12-12--12-12-12-|
C#|-----------------------------------------------|

D#|----------------------------|
A#|----------------------------|
F#|----------------------------|
C#|--5-5-5---4-5-7-9-7---------|     x4
G#|--5-5-5---4-5-7-9-7---------|
C#|--5-5-5---4-5-7-9-7---------|

RHYTHM

D#|------------------------------|
A#|------------------------------|
F#|------------------------------|
C#|--5-X-X-X-7-7-7-7---777-9-7-5-|    x4
G#|--5-X-X-X-5-5-7-7---777-9-7-5-|
C#|--5-X-X-X-----7-7---777-9-7-5-|

D#|------------------------------|
A#|------------------------------|
F#|------------------------------|
C#|--5-------7-7-7-7---777-9-7-5-|    x4
G#|--5-------5-5-7-7---777-9-7-5-|
C#|--5-----------7-7---777-9-7-5-|

D#|----------------------------------|
A#|----------------------------------|
F#|----------------------------------|
C#|--5-----7-----9----4----7-7-7-7-7-|
G#|--5-----7-----9----4----7-7-7-7-7-|
C#|--5-----7-----9----4----7-7-7-7-7-|

D#|----------------------------|
A#|----------------------------|
F#|----------------------------|
C#|--5----7----7---------------|   x2
G#|--5-x8-5-x8-7-x16-----------|
C#|--5---------7---------------|

D#|----------------------------|
A#|----------------------------|
F#|----------------------------|
C#|--5----7----7----9----------|
G#|--5-x8-5-x8-7-x8-9-x8-------|
C#|--5---------7----9----------|

D#|----------------------------|
A#|----------------------------|
F#|----------------------------|
C#|--5-----4----7--------------|
G#|--5-x16-4-x8-7-x8-----------|
C#|--5-----4----7--------------|

D#|------------------------------|
A#|------------------------------|
F#|------------------------------|
C#|--5-------7-7-7-7---777-9-7-5-|    x4
G#|--5-------5-5-7-7---777-9-7-5-|
C#|--5-----------7-7---777-9-7-5-|

D#|----------------------------------|
A#|----------------------------------|
F#|----------------------------------|
C#|--5-----7-----9----4----7-7-7-7-7-|
G#|--5-----7-----9----4----7-7-7-7-7-|
C#|--5-----7-----9----4----7-7-7-7-7-|

D#|----------------------------|
A#|----------------------------|
F#|----------------------------|
C#|--5----7----7---------------|
G#|--5-x8-5-x8-7-x16-----------|
C#|--5---------7---------------|

D#|----------------------------|
A#|----------------------------|
F#|----------------------------|
C#|--5----7----7----9----------|    x2
G#|--5-x8-5-x8-7-x8-9-x8-------|
C#|--5---------7----9----------|

D#|----------------------------|
A#|----------------------------|
F#|----------------------------|
C#|--5-----4----7--------------|
G#|--5-x16-4-x8-7-x8-----------|
C#|--5-----4----7--------------|

Play the following two bars twice, with the second bar being played
twice the second time around

D#|------------------------------------|
A#|------------------------------------|
F#|------------------------------------|
C#|--9-XX-XXX-XXX-XXX-7-XX-XXX-XXX-XXX-|
G#|--9-XX-XXX-XXX-XXX-7-XX-XXX-XXX-XXX-|
C#|--9-XX-XXX-XXX-XXX-7-XX-XXX-XXX-XXX-|

D#|----------------------------|
A#|----------------------------|
F#|----------------------------|
C#|--5-5-5---4-5-7-9-7---------|
G#|--5-5-5---4-5-7-9-7---------|
C#|--5-5-5---4-5-7-9-7---------|

D#|----------------------------|
A#|----------------------------|
F#|----------------------------|
C#|----------7-7-7-7-7~--------|
G#|--4-------7-7-7-7-7~--------|
C#|--4--x16--7-7-7-7-7~--------|
     *
D#|----------------------------|
A#|----------------------------|
F#|----------------------------|
C#|--5----7----7---------------|  x2
G#|--5-x8-5-x8-7-x16-----------|
C#|--5---------7---------------|

D#|----------------------------|
A#|----------------------------|
F#|----------------------------|
C#|--5----7----7----9----------|
G#|--5----5----7-x8-9-x8-------|
C#|--5---------7----9----------|

D#|----------------------------|
A#|----------------------------|
F#|----------------------------|
C#|--5-----4----7--------------|
G#|--5-x16-4-x8-7-x8-----------|
C#|--5-----4----7--------------|

Thanks for checking it out!
Comment and rate!
Tap to rate this tab
 
# A B C D E F G H I J K L M N O P Q R S T U V W X Y Z