Artist Vs Poet - Favorite Fix Acoustic tab

Tabbed from this video: http://www.youtube.com/watch?v=7MvhuyR-2eM
Just given notes not strumming pattern. Its easy to play. Enjoy!

Standard Tuning

Intro
E|-0--0--0--0-|
B|-5--5--5--0-|
G|-6--6--6--4-|
D|-6--6--6--6-|
A|-4--4--x--6-|
E|-0--0--5--4-|

Verse
E|-0--0--0--0-|
B|-5--5--5--0-|
G|-6--6--6--4-|
D|-6--6--6--6-| x2
A|-4--4--x--6-|
E|-0--0--5--4-|

E|-------------------------------0-|
B|---5----4----------------------5-|
G|------------6----4-------------6-|
D|----------------------7-----6--6-|
A|-4---44---4---44---4----44-----4-|
E|-------------------------------0-|

Chorus
E|-0--0--0--0--0-------|-0-|
B|-0--0--5--0--0-------|-5-|
G|-9--9--6--4--4-----4-|-6-|
D|-9--9--6--4--4--7--6-|-6-|
A|-7--6--4--2--1--7--6-|-4-|
E|-0--7--0--0--0--5--4-|-0-|

Verse
E|-0--0--0--0-|
B|-5--5--5--0-|
G|-6--6--6--4-|
D|-6--6--6--6-| x2
A|-4--4--x--6-|
E|-0--0--5--4-|

E|-------------------------------0-|
B|---5----4----------------------5-|
G|------------6----4-------------6-|
D|----------------------7-----6--6-|
A|-4---44---4---44---4----44-----4-|
E|-------------------------------0-|

Chorus
E|-0--0--0--0--0-------|-0-|
B|-0--0--5--0--0-------|-5-|
G|-9--9--6--4--4-----4-|-6-|
D|-9--9--6--4--4--7--6-|-6-|
A|-7--6--4--2--1--7--6-|-4-|
E|-0--7--0--0--0--5--4-|-0-|

Bridge
E|---------|         |---------|         |-0--|
B|-----5---|         |-----5---|         |-0--|
G|-------6-|         |-------6-|         |-4--|
D|---6-----| x4      |---6-----| x2      |-6--|
A|-4-------|         |---------|         |-6--|
E|---------|         |-5-------|         |-4--|

E|-0--0--0--0-|-0--|
B|-5--5--5--0-|-5--|
G|-6--6--6--4-|-6--|
D|-6--6--6--6-|-6--|
A|-4--4--x--6-|-4--|
E|-0--0--5--4-|-0--|

End Chorus
E|-0--0--0--0--0-------|
B|-0--0--5--0--0-------|
G|-9--9--6--4--4-----4-|
D|-9--9--6--4--4--7--6-| x2
A|-7--6--4--2--1--7--6-|
E|-0--7--0--0--0--5--4-|

E|-0--0--0-------|---|
B|-5--0--0-------|-5-|
G|-6--4--4-----4-|-6-|
D|-6--4--4--7--6-|-6-|
A|-4--2--1--7--6-|-4-|
E|-0--0--0--5--4-|-0-|
Tap to rate this tab
 
# A B C D E F G H I J K L M N O P Q R S T U V W X Y Z