Song name
# A B C D E F G H I J K L M N O P Q R S T U V W X Y Z

Artist Vs Poet - Adorable Acoustic tab

As requested by: Saynomore
Tabbed from this video: http://www.youtube.com/watch?v=7HVl69MHGss&feature=fvwrel

Tuning: Half a step down.
Capo: fret 2
ALSO, you could tune to standard tuning and have your capo on fret 1.
It will work out the same for the same key joe sings this in.
Otherwise put the capo wherever you want according to what you can sing and play.

The guys seem to play the song a little weird. Their chords get changed slightly :P
For example it seems that on a G chord one will play the E string with the 3rd fret
and one will play their E string with an open note.

The tabs a little hard to look at but you'll get it.
Play around with it to see what sounds best for you!
If you don't agree with something, or somethings wrong please comment.

Rate and Enjoy!

INTRO:
Guitar 1
    G   D   E   C
E|--3---2---3---3--|
B|--3---3---3---3--|
G|--0---2---0---0--|
D|--0---0---2---2--| x2
A|--2---0---2---3--|
E|--3---2---0---0--|

Guitar 2
   G           D           E           C
E|-------------------------------------------------|
B|-----0-----0-----3-----3-----0-----0-----3-----3-|
G|---0-----0-----0-----0-----0-----0-----0-----0---|
D|-------------0-----0-----------------------------| x2
A|-------------------------2-----2-----3-----3-----|
E|-3-----3-----------------------------------------|


VERSE: "so am i wrong to make believe"
Guitar 1
    G   D   E   C
E|--3---2---3---3--|
B|--3---3---3---3--|
G|--0---2---0---0--|
D|--0---0---2---2--| x4
A|--2---0---2---3--|
E|--3---2---0------|

Guitar 2
   G           D           E           C
E|-------------------------------------------------|
B|-----0-----0-----3-----3-----0-----0-----3-----3-|
G|---0-----0-----0-----0-----0-----0-----0-----0---|
D|-------------0-----0-----------------------------| x4
A|-------------------------2-----2-----3-----3-----|
E|-3-----3-----------------------------------------|

PRE-CHORUS: "i lost a step and i'm falling into you"

Guitar 1
    C   E   C        C   E   C   D  
E|--0---0---0-----|--0---0---0---2--|
B|--1---3---3--0--|--1---3---3---3--|
G|--0---0---0--0--|--0---0---0---2--|
D|--2---2---2-----|--2---2---2---0--|
A|--3---2---3-----|--3---2---3---0--|
E|------0---------|------0-------2--|

Guitar 2
   C           E           C               C           E           C            D
E|---------------------------------------|--------------------------------------2-|
B|-----1-----1-----3-----3-----3-----3-0-|-----1-----1-----3-----3-----3-----3--3-|
G|---0-----0-----0-----0-----0-----0---0-|---0-----0-----0-----0-----0-----0----2-|
D|---------------------------------------|--------------------------------------0-|
A|-3-----3-----2-----2-----3-----3-------|-3-----3-----2-----2-----3-----3------0-|
E|---------------------------------------|--------------------------------------2-|


CHORUS: "shes adorable as hell"
Both Guitars
    G   D   E   C     E   D   E   C
E|--3---2---3---3--|--0---2---3---3--|
B|--3---3---3---3--|--3---3---3---3--|
G|--0---2---0---0--|--0---2---0---0--|
D|--0---0---2---2--|--2---0---2---2--| x2
A|--2---0---2---3--|--2---0---2---3--|
E|--3---2---0---0--|--0---2---0------|


PRE-VERSE:
Both Guitars
    G   D   E   C
E|--3---2---3---3--|
B|--3---3---3---3--|
G|--0---2---0---0--|
D|--0---0---2---2--|
A|--2---0---2---3--|
E|--3---2---0---0--|


VERSE 2: "i'm powerless and she's well rehearsed"
Guitar 1
    G   D   E   C
E|--3---2---3---3--|
B|--3---3---3---3--|
G|--0---2---0---0--|
D|--0---0---2---2--| x4
A|--2---0---2---3--|
E|--3---2---0------|

Guitar 2
   G           D           E           C
E|-------------------------------------------------|
B|-----0-----0-----3-----3-----0-----0-----3-----3-|
G|---0-----0-----0-----0-----0-----0-----0-----0---|
D|-------------0-----0-----------------------------| x4
A|-------------------------2-----2-----3-----3-----|
E|-3-----3-----------------------------------------|


PRE-CHORUS 2: "i tripped up and i'm falling into you"
BOTH GUITARS
    C   E   C        C   E   C   D  
E|--0---0---0-----|--0---0---0---2--|
B|--1---3---3--0--|--1---3---3---3--|
G|--0---0---0--0--|--0---0---0---2--|
D|--2---2---2-----|--2---2---2---0--|
A|--3---2---3-----|--3---2---3---0--|
E|------0---------|------0-------2--|


CHORUS: "shes adorable as hell"
Both Guitars
    G   D   E   C     E   D   E   C
E|--3---2---3---3--|--0---2---3---3--|
B|--3---3---3---3--|--3---3---3---3--|
G|--0---2---0---0--|--0---2---0---0--|
D|--0---0---2---2--|--2---0---2---2--| x2
A|--2---0---2---3--|--2---0---2---3--|
E|--3---2---0---0--|--0---2---0------|


BRIDGE: "try to save the better days with you"
Both Guitars
    G  C
E|--3--3--x--|
B|--3--3--x--|
G|--0--0--x--|
D|--0--2--x--| x2
A|--2--3--x--|
E|--3-----x--|


PRE-CHORUS 3: "i took a chance and i'm falling into you"
Both Guitars
    C   E   C        C   E   C   D  
E|--0---0---0-----|--0---0---0---2--|
B|--1---3---3--0--|--1---3---3---3--|
G|--0---0---0--0--|--0---0---0---2--|
D|--2---2---2-----|--2---2---2---0--|
A|--3---2---3-----|--3---2---3---0--|
E|------0---------|------0-------2--|


CHORUS: "shes adorable as hell"
Both Guitars
    G   D   E   C     E   D   E   C
E|--3---2---3---3--|--0---2---3---3--|
B|--3---3---3---3--|--3---3---3---3--|
G|--0---2---0---0--|--0---2---0---0--|
D|--0---0---2---2--|--2---0---2---2--| x4
A|--2---0---2---3--|--2---0---2---3--|
E|--3---2---0---0--|--0---2---0------|

    E   D   E   C
E|--0---2---3---3--|
B|--3---3---3---3--|
G|--0---2---0---0--|
D|--2---0---2---2--|
A|--2---0---2---3--|
E|--0---2---0------|


OUTRO:
Guitar 1
    G   D   E   C
E|--3---2---3---3--|
B|--3---3---3---3--|
G|--0---2---0---0--|
D|--0---0---2---2--| 
A|--2---0---2---3--|
E|--3---2---0---0--|

Guitar 2
   G           D           E           C
E|----------------------------------------|
B|-----0-----0-----3-----3-----0-----0-3--|
G|---0-----0-----0-----0-----0-----0---0--|
D|-------------0-----0-----------------2--|
A|-------------------------2-----2-----3--|
E|-3-----3--------------------------------|
Tap to rate this tab
 
# A B C D E F G H I J K L M N O P Q R S T U V W X Y Z