Song name
# A B C D E F G H I J K L M N O P Q R S T U V W X Y Z

Artist Vs Poet - Miserably Loving You chords

Miserably Loving You by Artist Vs. Poet

Intro

e|---0---0---0---3----------------------------------------------------------|
B|---3---3---3---3----------------------------------------------------------|
G|---2---2---2---0----------------------------------------------------------|
D|---0---2---0---0----------------------------------------------------------|
A|-------0---2---0----------------------------------------------------------|
E|---------------3----------------------------------------------------------|

Pre-Chorus x2

e|---0---3---2---0----------------------------------------------------------|
B|---3---3---3---3----------------------------------------------------------|
G|---2---0---2---2----------------------------------------------------------|
D|---0---0---0---2----------------------------------------------------------|
A|---2---0---0---0----------------------------------------------------------|
E|-------3------------------------------------------------------------------|

Chorus

e|---2---0---0---3---2---0---0---3---2---3----------------------------------|
B|---3---3---3---3---3---3---3---3---3---3----------------------------------|
G|---2---0---2---0---2---2---2---0---2---0----------------------------------|
D|---0---2---0---0---0---2---0---0---0---0----------------------------------|
A|---0---2---0---0---0-------2---0---0---0----------------------------------|
E|-------0---2---3---------------3-------3----------------------------------|

Bridge

e|---2---3------------------------------------------------------------------|
B|---3---3------------------------------------------------------------------|
G|---2---0------------------------------------------------------------------|
D|---0---0------------------------------------------------------------------|
A|---0---0------------------------------------------------------------------|
E|-------3------------------------------------------------------------------|

End of bridge (also the last chords at the end of the song)

e|---0---0---3--------------------------------------------------------------|
B|---3---3---3--------------------------------------------------------------|
G|---2---2---0--------------------------------------------------------------|
D|---0---2---0--------------------------------------------------------------|
A|---2---0---0--------------------------------------------------------------|
E|-----------3--------------------------------------------------------------|
Tap to rate this tab
 
# A B C D E F G H I J K L M N O P Q R S T U V W X Y Z