Song name
# A B C D E F G H I J K L M N O P Q R S T U V W X Y Z

Artist Vs Poet - Christmas With You tab

Half a step down baybeee

Chords:
G:320033
D:xx0232
Dsus:xx233
Em7:022033
Bm:x24432
Cadd9:x32033
Cm:x35543

Intro:
e|-----------------------------------------------------------------------------|
B|3-------------0---------------------------0----------------------------------|
G|-------0--------------0-------0h2-------------------2--0---------------------|
D|-----------------------------------------------------------------------------|
A|-----------------------------------------------------------------------------|
E|-3--------3----------------3--------------------3----------------------------|

e|-----------------------------------------------------------------------------|
B|3---------------0---------------------------0--------------------------------|
G|-------0--------------0-------0h2-----------------2--0-----------------------|
D|-----------------------------------------------------------------------------|
A|-3----------3-------------3-------------------3------------------------------|
E|-----------------------------------------------------------------------------|

e|-----------------------------------------------------------------------------|
B|3-------------0---------------------------0----------------------------------|
G|-------0--------------0-------0h2-------------------2--0---------------------|
D|-----------------------------------------------------------------------------|
A|-----------------------------------------------------------------------------|
E|-3--------3----------------3--------------------3----------------------------|

e|--------------------------------2-----------------------|
B|3---------------0--------------3------------------------|
G|-------0--------------0---------------------------------|
D|--------------------------------------------------------|
A|-3----------3-------------3-----------------------------|
E|--------------------------------------------------------|


Verse:

e|-----------------------------------------------------------0-----------------|
B|----------0--------------------------------3--------3-----3---3--------------|
G|-0--2-----------------------------------------0-----2----2-------------------|
D|----------------------------0------------------------0-----------------------|
A|-------------------0--2--3-----3----2----------------------------------------|
E|-0---2---3-------------------------------------------------------------------|

e|------0-------------------------2--3-----------------------------------------|
B|------------------3----------0-----0------------------------0h1----------3---|
G|------0-------------0--------------0--------------------0---------0-------0--|
D|------------------------------------------2--------0h2---------------2----4--|
A|--3------3--2-----------0---------------------3---------------------------5--|
E|------------------------------------0----------------------------------------|

e|--3----------3---------2---------3---------0----------0---------------------------|
B|-----0----------0---------0---------0----------1---------1--------3---------------|
G|--------0----------0---------0---------0----------0---------0-----0---------------|
D|--2----------2---------0---------2---------------------------------4--------------|
A|----------------------------------------------3----------3----------5-------------|
E|----------------------------------------------------------------------------------|




(Chorus)

(G)When the fire burns (D)out
And it's (Bm)only me and (Cadd9)you
Shimmery (Em7)lights outside
They re(Dsus)flect your eyes
As you (Cadd9)say "I love you (D)too"
(G)When the sun comes (D)up
And the(Bm)snow falls from the (Cadd9)roof
I can (Em7)smile be(Dsus)cause I (Cadd9)spent my Christmas with (G)you

(2nd chorus end before bridge)

..I can (Em7)smile be(Dsus)cause I (Cadd9)spent my Christmas with (Em7)you (Bm-Cadd9)


(G)With (D)you
Wanna be with (Em7)you (Bm-Cadd9)
(G)With (D)you
I wanna be with (Cadd9)you
I wanna be with (Cm)you (G)....

(Outro)


I can (Em7)smile be(Dsus)cause I (Cadd9)spent my
I can (Em7)smile be(Dsus)cause I (Cadd9)spent my
I can (Em7)smile be(Dsus)cause I (Cm)spent my Christmas with (G)you

Video tutorial maybe? email seth.werly@gmail.com
Tap to rate this tab
# A B C D E F G H I J K L M N O P Q R S T U V W X Y Z