Song name
# A B C D E F G H I J K L M N O P Q R S T U V W X Y Z

Artist Vs Poet - Stay tab

-------------------------------------------------------------------------------
                             Stay  - Artist Vs Poet
-------------------------------------------------------------------------------
Tabbed by: Mikey


Tuning: Half-step DOWN


Verse:

e|------------x-------------------------------x-----x-----------------------|
B|---------3--x----3------3-------------------x-----x-----------------------|
G|---------2--x----2--------2----0h2-0-----7--x--6--x-----------------------|
D|-------0----x----0----0-----------0------0--x--0--x-----------------------|
A|---0h2------x-------------------------------x-----x-----------------------|
E|------------x----2-------------3---////--7--x--5--x-----------------------|

Pre-chorus  (strum each once)

     Bm         A
e|-----------------------------|
B|---3----------3--------------|
G|---2----------2--------------|
D|---0----------2--------------|
A|---2----------0--------------|
E|-----------------------------|

      
Chorus  (continuous strumming)

   D/F#m   G         Bm    A
e|-------------------------------------------------|
B|---3-----3---------3-----3-----------------------|
G|---2-----0---------2-----2-----------------------|
D|---0-----0---------0-----2-----------------------|
A|---x-----2---------2-----0-----------------------|
E|---2-----3---------------------------------------|

vvvvvvvvvvvvvvvvvvvvvvvvvvvvvvvvvvvvv

(Verse)
And it's a sign
The way your eyes reflect in mine
You know it gets me every time, can't you see?
We'll be just fine, you and me, if you just stay

And I'm blown away
By the way your hair moves past your face
As we keep shifting from the foot to the head
Shake the frame of this bed where we lay

(Pre-Chorus & Chorus)
        Bm            A
And the only thing I want right now is for you to
D/F#m G      Bm     A
Stay stay stay stay with me now
D/F#m G      Bm     A
Stay stay stay stay with me
     D/F#m        G
And you're my Cinderella
  Bm            A
You know I can't forget ya
     D/F#m  G      Bm      A
If you stay stay stay stay with me now

(Verse)
We catch our breath
As we start to wonder what comes next
And I feel a rise in my chest when I see that smile
'Cause I know now at least for a while you're going to stay

And here comes the sun
Shining through the blanket walls as we touch
Oh you're all talk and you've been teasing me enough
But that's alright, I'll call your bluff, you're gonna stay

(Pre-Chorus & Chorus)
And the only thing I want right now is for you to
Stay stay stay stay with me now
Stay stay stay stay with me
And you're my Cinderella
You know I can't forget ya
If you stay stay stay stay with me now

D
And I don't wanna leave this bed all day
G
And I'mma do all I can to make you stay
D
And I don't wanna leave this bed all day
G
This bed all day, this bed all day
D
And I don't wanna leave this bed all day
G
And I'mma do all I can to make you stay
D
And I don't wanna leave this bed all day
G                                    A
This bed all day, this bed all day

(chorus  [creative picking/hammer-ons/pull-offs])
So why don't you just
Stay stay stay stay with me now
Stay stay stay stay with me
And you're my Cinderella
You know I can't forget ya
If you stay stay stay stay with me now

(chorus)
Stay stay stay stay with me now
Stay stay stay stay with me
And you're my Cinderella
You know I can't forget ya
If you stay stay stay stay with me now

(chorus)
So why don't you just
Stay stay stay stay with me now
Stay stay stay stay with me
And you're my Cinderella
You know I can't forget ya
If you stay stay stay stay with me now
Tap to rate this tab
 
# A B C D E F G H I J K L M N O P Q R S T U V W X Y Z