Song name
# A B C D E F G H I J K L M N O P Q R S T U V W X Y Z

Artist Vs Poet - Leavin In The Morning tab

Artist Vs Poet - Leavin' In The Morning

Intro: 2x
e|------------------------|
B|--12----12--------------|
G|--14----14--------------|
D|--11----12--------------|
A|---0-----0--------------|
E|------------------------|

Verse:       F#m7   D
e|-------------9----5--|
B|--12--12----10----5--|
G|--14--14-----9----7--|
D|--11--12----11----7--|
A|---0---0-----9----5--| 2x
E|---------------------|
    D U D D    D U D D
e|--0-0-0-0----0-0-0-0----|
B|--0-0-2-2----2-2-3-3----|
G|--2-2-2-2----2-2-2-2----|
D|--2-2-2-2----0-0-0-0----|
A|--0-0-0-0---------------|
E|------------------------|

Pre-Chorus:
e|-------------------------|
B|-----2----4----5---7-----|
G|------3----5----7--9-----|
D|----4----6----7----9-----|
A|---2----4----5-----7-----|
E|-------------------------|

Chorus:
    D   E   A A/G# F#m
e|------0---0-0----2-----|
B|--3---0---2-2----2-----|
G|--2---1---2-2----2-----|
D|--0---2---2-2----4-----|
A|------2---0-0----4-----| 2x
E|------0-----4----2-----|

Verse, Pre-Chorus, and Chorus remain the same

Bridge:
e|-----------------------------------------|
B|------12-------12-------12-------12------|
G|----14--14---14--14---14--14---14--14----|
D|--11-------11-------12-------12----------|
A|-----------------------------------------|
E|-----------------------------------------|

Then back to the Intro chords for Bridge
e|-------------|
B|--12----12---|
G|--14----14---|
D|--11----12---|
A|---0-----0---| 4x
E|-------------|

Then back to Pre-Chorus, and finish with a Chorus and the Intro progression.
Tap to rate this tab
# A B C D E F G H I J K L M N O P Q R S T U V W X Y Z